Tabbed By -Existance-

O.K. This was i very quick version of the The Song... Don't Be Mad For
Many Mistakes
Tuning B F# B E G# C#

Intro Riff 11x
----------22~~---------22~~-----------
------19~~----------19~~--------------
--------------------------------------
--------------------------------------
--------------------------------------
--------------------------------------
Riff II
Verse
--------------------------------------
--------------------------------------
--------------------------------------
--------------------------------------
--------------------------------------
-0-0-0-0-0-1-0-0-0-0-0-1-0-0-0-0-0-1-0
Chorus GTR 1
-----------------------------
-----------------------------
-----------------------------
-----------------------------
-0-0-0-4-4-4-3-0-0-0-4-4-4-3-
-0-0-0-4-4-4-3-0-0-0-4-4-4-3-
Chorus GTR 2
-----------------------------
-----------------------------
-19-19-19-19-19-19-19-19-19--
-----------------------------
-----------------------------
-----------------------------
Riff III GTR 1
-----------------------------
-----------------------------
-----------------------------
-----------------------------
-0-0-0-0-0-----0-0-0-0-0-----
-0-0-0-0-0-----0-0-0-0-0-----
GTR 2
-----------------------------
-----------------------------
---18~19-------18~19---------
-----------------------------
-----------------------------
-----------------------------

Riff IV
-----------------------------
-----------------------------
-----------------------------
-----------------------------
-----------------------------
0m0m0m0m-0---0m0m0m0m-0------
Riff V
-----------------------------
-----------------------------
-----------------------------
-----------------------------
0m0m0m0m0m-------0m0m0m0m----
0m0m0m0m0m-------0m0m0m0m----


Ваше мнение



Капча

Рекомендуем