TRANSCRIBED BY: Munky ([email protected])
TUNING: I think it's Dropped D
VERSE 1:
1st part
e|-------------|
B|-------------|
G|-------------| x8
D|--2-1-0-000--|
A|--2-1-0-000--|
D|--2-1-0-000--|
2nd part
e|----------|
B|----------|
G|----------| x8
D|----------|
A|--222111--|
D|--222111--|
CHOURS 1:
|-------------------------------------|
|-------------------------------------|
|-------------------------------------|
|-------------------------------------| x4
|--2-1-1-1-1-1-1-1-1-1-2-1-1-2-0-1-2--|
|--2-1-1-1-1-1-1-1-1-1-2-1-1-2-0-1-2--|
|-------------------------------------|
|-------------------------------------|
|-------------------------------------|
|-------------------------------------| x4
|-------------------------------------|
|--2-1-1-1-1-1-1-1-1-1-2-1-1-2-0-1-2--|
VERSE 2:
1st part
e|-------------|
B|-------------|
G|-------------| x8
D|--2-1-0-000--|
A|--2-1-0-000--|
D|--2-1-0-000--|
2nd part
e|----------|
B|----------|
G|----------| x8
D|----------|
A|--222111--|
D|--222111--|
CHOURS 2:
|-------------------------------------|
|-------------------------------------|
|-------------------------------------|
|-------------------------------------| x4
|--2-1-1-1-1-1-1-1-1-1-2-1-1-2-0-1-2--|
|--2-1-1-1-1-1-1-1-1-1-2-1-1-2-0-1-2--|
|-------------------------------------|
|-------------------------------------|
|-------------------------------------|
|-------------------------------------| x4
|-------------------------------------|
|--2-1-1-1-1-1-1-1-1-1-2-1-1-2-0-1-2--|
INTERLUDE:
|-----------|
|-----------|
|-----------|
|--2--3--6--| x2
|--2--3--6--|
|--2--3--6--|
HEAVY PART BEFORE AND DURING SOLO:
|----------------------|
|----------------------|
|----------------------|
|----------------------|
|----------------------|
|--22222222222222-3-6--|
|--22222222222222-3-6--|
OUTRO:
|----------------------------|
|----------------------------|
|----------------------------|
|----------------------------|
|----------------------------|
|--22-22-22-22-22-22-22-3-6--|
THE END
ENJOY!
(I HOPE IT'S OK)


Ваше мнение



Капча

Рекомендуем