SONG: Bumba
BAND: Soulfly
ALBUM: Soulfly
TRANSCRIBED BY: Nick Biondo ([email protected])
DATE: Unknown
-------------------------------------------------------
TUNING: tune as follows (B-E-A-D-F-B)
INTRO: (clean w/ wah)
B|------------------------------------------------10--10----------13--------|
F|-1h2/4/5/7--------8---8---8------------10-----------10----------11--------|
D|------------5-----7---7---7----7/---12-----12-------12----------10--------|
A|-------------------------------------------------------10-------10--------|
E|------------------7--7---7---7------------------------------9-------------|
B|--------------------------------------------------------------------------|
B|----------------------10---------------------------^7------8-8-8-8-8-8-8--|
F|----8-----8--8--------12-------12-----------^7-----^7------8-8-8-8-8-8-8--|
D|----5-----7--7---x11--11-------11-----9-----^7-----^8------7-7-7-7-7-7-7--|
A|-------6--6--6------------------------------^7-----^9------6-6-6-6-6-6-6--|
E|-7-----7--7--7-----------------9------------^7-----^7---7--7-7-7-7-7-7-7--|
B|--------------------------------------------------------------------------|
VERSE:
B|------------------------------------|
F|------------------------------------|
D|------------------------------------|
A|------------------------------------|
E|------------------------------------|
B|-0--0--0--0--0--0--0--0--0--0-------|
|------------P.M.------------------|
CHORUS:
B|---------------------------|
F|---------------------------|
D|---------------------------|
A|---------------------------|
E|-6-6--6-6--6-6--6-6--6-2---|
B|-4-4--4-4--4-4--4-4--4-0---|
POST-CHORUS: (1st time only, w/ clean tone and wah)
B|-----------------------------------------------------------------------------|
F|-8-----8----8-------8----8------8---------------12----x--------12-12-12------|
D|-7-----7----7-------7----7------7---9-7----/11-----11-x--------12-12-12------|
A|-----------------------------------------------------------14----------------|
E|-7--7-------7----7-------7---7-----------------------------------------------|
B|-----------------------------------------------------------------------------|
B|----------------------------|
F|--12------------------------|
D|--12---13------7-9-9~~~-----|
A|-------14-------------------|
E|----------------------------|
B|----------------------------|
BRIDGE:
B|-----------------------|
F|-----------------------|
D|-----------------------|
A|-----------------------|
E|-----------------------|
B|-2-1-4-1-2-1-4-1-2-1---|


Ваше мнение



Капча

Рекомендуем