#----------------------------------PLEASE NOTE---------------------------------#
#This file is the author's own work and represents their interpretation of the #
#song. You may only use this file for private study, scholarship, or research. #
#------------------------------------------------------------------------------#
Visit MetalTabs.com for more metal tablature
Soulfly - Back to the primitive
From the album: Primitive
Tabbed by B-atch: [email protected]
Tuning: dropped B
_: let ring
1st guitar
c#|-------------------------------------------------|
g#|-------------------------------------------------|
e|-11-11-11-11-11-11-11-11-11-11-11-11-11-11-11-11-|
b|-12-12-12-12-12-12-12-12-12-12-12-12-12-12-12-12-|
f#|-------------------------------------------------|
b|-------------------------------------------------|
== == == == == == == == == == == ==
| | | | | | | | | | | | | | | |
/ / / / / / / / / / / / / / / /
c#|-------------------------------------------------|
g#|-------------------------------------------------|
e|-11-11-11-11-11-11-11-11-11-11-11-11-13-13-13-13-|
b|-12-12-12-12-12-12-12-12-12-12-12-12-12-12-12-12-|
f#|-------------------------------------------------|
b|-------------------------------------------------|
== == == == == == == == == == == ==
| | | | | | | | | | | | | | | |
/ / / / / / / / / / / / / / / /
2nd guitar
c#|---|---|
g#|-3-|---|
e|-2-|---|
b|-0-|---|
f#|-0-|---|
b|-0-|---|
_
x3
c#|-----------|------------------------------|
g#|-----------|------------------------------|
e|-----------|------------------------------|
b|-1-3-1-0---|-1-3-1-0----11-11-11-11-11-11-|
f#|-1-3-1-0---|-1-3-1-0----11-11-11-11-11-11-|
b|-1-3-1-0---|-1-3-1-0----11-11-11-11-11-11-|
= = = = = = == == == ==
| | | |_| | | | | | | | | | | |
/ / / / 0. / / / / /. / / / / / /
c#|----------------------------------------|
g#|----------------------------------------|
e|----------------------------------------|
b|------------------------------------2-1-|
f#|-1---0--0---1---0---0---1---0---0---2-1-|
b|-1---0--0---1---0---0---1---0---0---2-1-|
= = = = = =
| | | | | | | | | | |
/ / / / / / / / / / /
SONG: Back to the Primitive
BAND: Soulfly
ALBUM: Primitive
TRANSCRIBED BY: Unknown
TUNING: drop d and down one and a half steps (B,F#,B,E,G#,C#)
INTRO:
|--------------------------------------------------|
|--------------------------------------------------|
|--11-11-11-11-11---11-11---11-11---11-11-11-11-11-|
|--12-12-12-12-12---12-12---12-12---12-12-12-12-12-|
|--------------------------------------------------|
|--------------------------------------------------|
|-----------------------------|
|-----------------------------|
|-11-11-1113--------1311----|
|-12-12-12----12-12--------12-|
|-----------------------------|
|-----------------------------|
VERSE:
4th time
|---------| |---|
|---------| |---|
|---------| |-6-|
|-23p0-0-| |-4-|
|-23p0-0-| |-4-|
|-23p0-0-| |---|
INTERLUDE PART:
|--------------------------------|
|--------------------------------|
|--------------------------------|
|--------------------------------|
|--------------------------2--1--|
|--1p0-0-0-1p0-0-0-1p0-0-0-2--1--|
CHORUS:
|--------------------------------|
|--------------------------------|
|--------------------------------|
|--------------------------------|
|-----------------------2--1-----|
|--1p0-0-1p0--1p0--1p0--2--1-----|



Ваше мнение



Капча

Рекомендуем