Vermilion Part 2
Artist: Slipknot
Album: Vol. 3 (The Subliminal Verses)
Dropped D-Tuning (D-A-D-G-B-E)
Intro = Verse:
G#-Riff B-riff
E--------------------I--------------------|
B--------------------I--------------------|
G--------------------I--------------------|
D--6--8--6--6-6-6-6-6I--9-9-9-9-9-9-9-9-9-|
A--6--6--7--6-6-7-6-7I--9-9-9-9-9-9-9-9-9-|
D--6--6--6--6-6-6-6-6I--9-9-9-9h8-8-8-8-8-|
G#Riff B-Riff
She seemed dressed and not all of me
G#Riff
Stretched across my shame,
B-RIFF
All the torment and the pain
Leaked through and covered me.
G#Riff B-RIFF
I'd do anything to have her to myself,
G#Riff
Just to have her for myself.
B-
I don't know what to do,
A B
I don't know what to do when she makes me sad.
G#Riff B-RIFF
She is everything to me,
G#Riff
The unrequited dream,
B-RIFF
It's all the know one things
The unattainable.
G#Riff B-RIFF
She's a myth that I have to believe in,
G#Riff
All I need to make it real is one more reason.
B
I don't know what to do,
A B
I don't know what to do when she makes me sad.
G F# Bm F#
But I won't let this build up inside of me.
G F# Bm F#
I won't let this build up inside of me.
G F# Bm F#
I won't let this build up inside of me.
G F# B-RIFF F# G B
I won't let this build up inside of me.
G F#
A catch in my throat, choke,
Bm F# G F#
Torn into pieces, I won't. No.
Bm F#
I don't want to be this but
I won't let this build up inside of me. 4X
(won't let this build up inside of me)
Outro=Verse
She isn't real.
I can't make her real.
She isn't real.
I can't make her real.
Chords
G# B A G F# Bm
E-----------------------------2----|
B-----------------------------3----|
G-----------------------------4----|
D-6-------9----7----5----4----4----|
A-6-------9----7----5----4----2----|
D-6-------9----7----5----4---------|



Ваше мнение



Капча

Рекомендуем