Written by SLASH/Mike Inez
For the Album:
It's Five O'Clock Somewhere
by SLASH's Snakepit
intro. (Main riff)

-----------------------------------------------------
-----------------------------------------------------
-----------------------------------------------------
--------------------------З---З-------З-----------
------------2--------2--5-0-4-2--0--4-2-0-------
-12/0-0-4---0-0-4--------------------------------
*Sorum's sticks are clicking violently
E5 E5 D5 D5 C#5 C5 B5
-----------------------------------------------------
-----------------------------------------------------
---9--9-x---7--7--x--6--5--4--------------------
---9--9-x---7--7--x--6--5--4--------------------
---7--7-x---5--5--x--4--3--2--------------------
*the pattern is rushed
Ending Part :
4*
|------------------------|--------------------------------------|
|------------------------|--------------------------------------|
|*----------------------*|--------------------------------------|
|*--0---2---------------*|--------------------------------------|
|-------------5----------|--------------------------------------|
|-----0---5b6---5b6-3-0--|--------------------------------------|


Ваше мнение



Капча

Рекомендуем