Pre-verse
G-------------------------------------------------------------------
D-------------------------------------------------------------------
A--3-3-0-3-3-3-0-3-3-3-0-3-3-3-0-3-3-3-0-3-3-3-0-3-3-3-0-3-3-3-0-3--
E-------------------------------------------------------------------
Verse
G-----------------------------------
D----------------------------------- x3
A--3-3-0-3-3-3-0-3-3-3-0-3-8-8-7-7--
E-----------------------------------
G-----------------------------------
D-----------------------------------
A--3-3-0-3-3-3-0-3-3-3-0-3-3-3-0-3--
E-----------------------------------
Chorus
G-------------------------------------------------------------------
D--5-5-5-5-5-5-5-5-5-5-5-5-5-5-5-5-3-3-3-3-3-3-3-3-2-2-2-2-0-0-0-0--
A-------------------------------------------------------------------
E-------------------------------------------------------------------
G-------------------------------------------------------------------
D-------------------------------------------------------------------
A--3-3-0-3-3-3-0-3-3-3-0-3-8-8-7-7-3-3-0-3-3-3-0-3-3-3-0-3-3-3-0-3--
E-------------------------------------------------------------------
Guitar Solo
G-------------------------------------------------------------------
D-------------------------------------------------------------------
A--5-5-5-5-5-5-5-5-7-7-7-7-7-7-7-7-5-5-5-5-5-5-5-5-7-7-7-7-7-7-7-7--
E-------------------------------------------------------------------
G-------------------------------------------------------------------
D--------------------------------------------------5-5-5-5-5-5-5-5--
A--5-5-5-5-5-5-5-5-7-7-7-7-7-7-7-7-5-5-5-5-5-5-5-5------------------
E-------------------------------------------------------------------
G---------------------------------------------------
D--5-5-5-5-5-5-5-5----------------------------------
A---------------------------------------------------
E------------------3-3-3-3-3-3-3-3-3-3-3-3-3-3-3-3--
Bridge
G-------------------------------------
D------------------------------------- x4
A--5-5-5-5-5-5-5-5-5-5-5-5-10-10-9-9--
E-------------------------------------


Ваше мнение



Капча

Рекомендуем