SAXON - WHEELS OF STEEL
From the Album WHEELS OF STEEL
Copyright 1980 EMI RECORDS
Version 1.0 - (NOV. - 2001)
Transcribed by: RENE C.
For Questions, Comments, Newest Version, or Corrections contact
(YOUR NAME): at (YOUR E-MAIL ADDRESS)
Check Out Death Warp, With More Transcriptions On It:
http://www.wam.umd.edu/~ekubica
.. - palm mute / - slide up to
- slide down to ~ - vibrato
h - hammer on b - bend
p - pull off Suffixes for bend
ph - pinch harmonic
f - full bend h - half bend
* - see comment r - release t - tap bend
X - percussion mute ~ - vibrato bend
@ - slight palm mute () - ghost note, sustained note
Tune Gtr to E#
Riff A
|----------------------------------------|
|----------------------------------------|
|----------------------------------------|
|--2---5---4---2-----5-4-2--5-4----------|
|--0-0-0-0-0-0-0-0-0-0-0-0--3-2----------|
|----------------------------------------|

CHORUS
|-------------------------------------------|
|-------------------------------------------|
|--7----5----4------------7----5----4-------|
|--7----5----4----5--7----7----5----4-------|
|--5----3----2----5--7----5----3----2-------|
|-----------------3--5----------------------|
Riff B
|----------------------------|
|----------------------------|
|----------------------------|
|--5--7----5--7----5--7------|
|--5--7----5--7----5--7------|
|--3--5----3--5----3--5------|




Ваше мнение



Капча

Рекомендуем