SAXON - TO HELL AND BACK
From the Album STRONG ARM OF THE LAW
Copyright 1980 - EMI
Version 1.1 - (JAN. - 2002)
Transcribed by: REAPER
For Questions, Comments, Newest Version, or Corrections contact
(ReneC): at ([email protected])
Check Out Death Warp, With More Transcriptions On It:
http://www.wam.umd.edu/~ekubica
.. - palm mute / - slide up to
- slide down to ~ - vibrato
h - hammer on b - bend
p - pull off Suffixes for bend
ph - pinch harmonic
f - full bend h - half bend
* - see comment r - release t - tap bend
X - percussion mute ~ - vibrato bend
@ - slight palm mute () - ghost note, sustained note
Tune Gtr to Eb

Riff A
|-------------------------------------------------|
|-------------------------------------------------|
|-2------------2------------------------2---------|Gtr
|-2------------2-----------5------------2---------| I
|-0---3-2-0----0---3-2-0---5---3-2-0----0---------|
|-----------3------------3-3---------3------------|
Riff B
|--------------------------------------------------------------------|
|--------------------------------------------------------------------|
|-----------------------------------------------------------2--------|Gtr
|-----------------------------------------------------------2--------| I
|-3-2-0---0--2--3---3-2-0-----------3-2-0-----0-2---3-2-0---0--------|
|-------3-----------------3-1-3-5---------3-3--------------3---------|
| |
|--------------------------------------------------------------------|
|--------------------------------------------------------------------|
|---------2-------------------------------------------------2--------|Gtr
|---------2-----------------4---------------5---------------2--------| II
|-3-2-0---0---------3-2-0---4-------3-2-0---5-------3-2-0---0--------|
|-------3-----------------3-2-------------3-3--------------3---------|
Riff C
|--------------------------------------------------------------------|
|--------------------------------------------------------------------|
|-------9--------9---------9----------------9---------9--------------|
|-------9--------9---------9----------------9---------9--------------|
|-5-4-5-7--------7---------7--5-4-4---------7---------7--------------|
|-3-2-3--0-0-0-0---0-0-0-0----3-2-3-0-0-0-0---0-0-0-0----------------|
Riff D
|---------------------------|
|---------------------------|
|-------2----------2--------|
|-------2----------2--------|
|3-2-3--0---3-2-3--0--------|
|---------------------------|
END
|-----------------------------------|
|-----------------------------------|
|-----------------------------------|
|---------------------------2-------|
|---------------------------2-------|
|3-2-3--3-2-3--3-2-3--3-2-3-0-------|




Ваше мнение



Капча

Рекомендуем