SAXON - STRONG ARM OF THE LAW
From the Album STRONG ARM OF THE LAW
Copyright 1980 EMI RECORDS
Version 1.0 - (FEB. - 2001)
Transcribed by: REAPER
For Questions, Comments, Newest Version, or Corrections contact
[email protected]
Check Out Death Warp, With More Transcriptions On It:
http://tiger.towson.edu/~dalvis1
.. - palm mute / - slide up to
- slide down to ~ - vibrato
h - hammer on b - bend
p - pull off Suffixes for bend
ph - pinch harmonic
f - full bend h - half bend
* - see comment r - release t - tap bend
X - percussion mute ~ - vibrato bend
@ - slight palm mute () - ghost note, sustained note
Tune Gtr to Eb
Riff A
|--------------------------------------------------------------------|
|--------------------------------------------------------------------|
|----5------7--2------------------5------7--2------------------------|Gtr
|----5------7--2------------------5------7--2------------------------| I
|23----45----0--------------23----45----0------------------------|
|--------------------------------------------------------------------|
| |
|--------------------------------------------------------------------|
|--------------------------------------------------------------------|
|----5------7---------------------5------7---------------------------|Gtr
|----5------7--2---5---4---2------5------7--2---5-- 4---2------------| II
|23----45----0-0-0-0-0-0-0--23----45----0-0-0-0-0-0-0------------|
|--------------------------------------------------------------------|
CHORUS
|--------------------------------------------------------------------|
|--------------------------------------------------------------------|
|-2---5-------7----5--2----------------------------------------------|
|-2---5--5----7----5--2----------------------------------------------|
|-0---3--5----5----3--0----------------------------------------------|
|--------3-----------------------------------------------------------|




Ваше мнение



Капча

Рекомендуем