SAXON - PRINCESS OF THE NIGHT
From the Album DENIM AND LEATHER
Copyright 1981 - EMI
Version 1.0 - (JAN. - 2001)

Transcribed by: REAPER

For Questions, Comments, Newest Version, or Corrections contact
(YOUR NAME): at (YOUR E-MAIL ADDRESS)

Check Out Death Warp, With More Transcriptions On It:
http://tiger.towson.edu/~dalvis1

.. - palm mute / - slide up to
- slide down to ~ - vibrato
h - hammer on b - bend
p - pull off Suffixes for bend
ph - pinch harmonic
f - full bend h - half bend
* - see comment r - release t - tap bend
X - percussion mute ~ - vibrato bend
@ - slight palm mute () - ghost note, sustained note

Tune Gtr to Eb

Riff A
|--------------------------------------------------------------------|
|--------------------------------------------------------------------|
|-----------6-7-6-7------------6--7----------------------------------|Gtr
|9--9--9--9-4/5-4/5-7--7--7--7-4--5----------------------------------| I
|7777777777---------5555555555---------------------------------------|
|--------------------------------------------------------------------|

CHORUS
|--------------------------------------------------------------------|
|--------------------------------------------------------------------|
|-4----5----7--(7)----4----5----7---7-7------------------------------|Gtr
|-4----5----7--(7)----4----5----7---7-7------------------------------| I
|-2----3----5--(5)----2----3----5---5-5------------------------------|
|--------------------------------------------------------------------|

SOLO RIFF 1
|--------------------------------------------------------------------|
|--------------------------------------------------------------------|
|--------------------------------------------------------------------|Gtr
|2-2-2-2-2-2-2-2-----------------------------------------------------| I
|0-0-0-0-0-0-0-0-2---4-5--2---4-5------------------------------------|
|----------------0-0-0-0--0-0-0-0------------------------------------|

SOLO RIFF 2
|--------------------------------------------------------------------|
|--------------------------------------------------------------------|
|--------------------------------------------------------------------|Gtr
|-12--11-10-9--------------------------------------------------------| I
|-10--9--8--7--------------------------------------------------------|
|--------------------------------------------------------------------|

SOLO RIFF 3
|--------------------------------------------------------------------|
|--------------------------------------------------------------------|
|--------------------------------------------------------------------|
|9--9--9--9--9--9-7--7--7--7--7--7-----------------------------------|
|7777777777777777-5555555555555555-----------------------------------|
|--------------------------------------------------------------------|
SOLO START ON SOLO RIFF 3
|--------------------------------------------------------------------|
|--------------------------------------------------------------------|
|--------------------------------------------------------------------|
|0h222222222222h4444444444444h5555555555555h777777777777h999999999999|
|--------------------------------------------------------------------|
|--------------------------------------------------------------------|

|--------------------------------------------------------------------|
|--------------------------------------------------------------------|
|--------------------------------------------------------------------|
|h121212121212121212121212-------------------------------------------|
|--------------------------------------------------------------------|
|--------------------------------------------------------------------|




Ваше мнение



Капча

Рекомендуем