SAXON - OUT OF CONTROL
From the Album DENIM AND LEATHER
Copyright 1981 EMI RECORDS
Version 1.0 - (NOV. - 2001)
Transcribed by: RENE C
For Questions, Comments, Newest Version, or Corrections contact
(YOUR NAME): at (YOUR E-MAIL ADDRESS)
Check Out Death Warp, With More Transcriptions On It:
http://www.wam.umd.edu/~ekubica
.. - palm mute / - slide up to
- slide down to ~ - vibrato
h - hammer on b - bend
p - pull off Suffixes for bend
ph - pinch harmonic
f - full bend h - half bend
* - see comment r - release t - tap bend
X - percussion mute ~ - vibrato bend
@ - slight palm mute () - ghost note, sustained note
Tune Gtr to Eb
Riff A
|---------------------------------------|
|---------------------------------------|
|------7------5--2---------7--5--2------|
|----7------5----2---------7--5--2------|
|--5------3------0----0-0--5--3--0------|
|---------------------------------------|
Riff B.1
|-----------------------------------|
|-----------------------------------|
|------7------5--2----------7--9----|
|----7------5----2----------5--7----|
|--5------3------0----0-0-0---------|
|-----------------------------------|
Riff B.2
|-----------------------------------|
|-----------------------------------|
|------7------5--2----7--7/9--------|
|----7------5----2----5--5/7--------|
|--5------3------0------------------|
|-----------------------------------|
Riff C
|-----------------------|
|-----------------------|
|--7-----------5--4-----|Gtr
|--7--------------------| II
|--5--5--3--2-----------|
|-----------------------|
| |
|-----------------------|
|-----------------------|
|--7--------------------|Gtr
|--7--------------------| I
|--5--5--3--2--3--2-----|
|-----------------------|
Riff D
|---------------------------------------------------------|
|---------------------------------------------------------|
|------7------5------2-----2-----2-----2-----2-----2------|
|----7------5------2-----2-----2-----2-----2-----2--------|
|--5------3------0-----0-----0-----0-----0-----0----------|
|---------------------------------------------------------|
Riff E
|--------------------------|
|--------------------------|
|--------------------------|
|------4-----4-----4-------|
|--2-2-2-2-2-2-2-2-2-------|
|--------------------------|




Ваше мнение



Капча

Рекомендуем