SAXON - 747 (STRANGERS IN THE NIGHT)
From the Album WHEELS OF STEEL
Copyright 1980 EMI RECORDS
Version 1.0 - (NOV. - 2001)
Transcribed by: RENE C
For Questions, Comments, Newest Version, or Corrections contact
(YOUR NAME): at
Check Out Death Warp, With More Transcriptions On It:
http://www.wam.umd.edu/~ekubica
.. - palm mute / - slide up to
- slide down to ~ - vibrato
h - hammer on b - bend
p - pull off Suffixes for bend
ph - pinch harmonic
f - full bend h - half bend
* - see comment r - release t - tap bend
X - percussion mute ~ - vibrato bend
@ - slight palm mute () - ghost note, sustained note
Tune Gtr to E#
Riff A
|----------------------------------------------|
|----------------------------------------------|
|--9---5---7-7--2---------9---5---5--7--9------|
|--9---5---7-7--2---------9---5---5--7--9------|
|--7---3---5-5--0---------7---3---3--5--7------|
|------------------3-2-0-----------------------|

Riff B
|-----------------------------------------------|
|-----------------------------------------------|
|--9---5---7-7--2---------9---5---5--7--9-------|
|--9---5---7-7--2---------9---5---5--7--9-------|
|--7---3---5-5--0---------7---3---3--5--7-------|
|-----------------------------------------------|
Riff C
|----------------------------------------------------------------|
|----------------------------------------------------------------|
|----7-9-10-9-10----7-9-10-9-10----7-9-10-9-10----7-9-10-9-10----|
|--0--------------0--------------7--------------7----------------|
|----------------------------------------------------------------|
|----------------------------------------------------------------|




Ваше мнение



Капча

Рекомендуем