SAXON - 20,000 FEET
From the Album STRONG ARM OF THE LAW
Copyright 1980 - EMI
Version 1.0 - (JAN. - 2001)
Transcribed by: RENE C
For Questions, Comments, Newest Version, or Corrections contact
(YOUR NAME): at (YOUR E-MAIL ADDRESS)
Check Out Death Warp, With More Transcriptions On It:
http://www.wam.umd.edu/~ekubica
.. - palm mute / - slide up to
- slide down to ~ - vibrato
h - hammer on b - bend
p - pull off Suffixes for bend
ph - pinch harmonic
f - full bend h - half bend
* - see comment r - release t - tap bend
X - percussion mute ~ - vibrato bend
@ - slight palm mute () - ghost note, sustained note
Tune Gtr to Eb

Riff A
|--------------------------------------------------------------------|
|--------------------------------------------------------------------|
|-----9---7---9---7---7-7-7-------9---7---9---7---7-7-7--------------|
|-----9---7---9---7---7-7-7-------9---7---9---7---7-7-7--------------|
|-----7---5---7---5---5-5-5-------7---5---7---5---5-5-5--------------|
|-0-0---0---0---0---0--------0-0----0---0---0---0--------------------|
Riff B
|--------------------------------------------------------------------|
|--------------------------------------------------------------------|
|-7-------------------7------------------7---------------------------|
|-7----7----9--9-9----7----7----9--9-9---7----7----9-----------------|
|-5----7----7--7-7----5----7----7--7-7---5----7----9-----------------|
|------5----0--------------5----0-------------5----7-----------------|
Riff C
|--------------------------------------------------------------------|
|--------------------------------------------------------------------|
|----5-----5-5-5-5-----5-----5-5-5-5-----7-----7-7-7-7-----7---------|
|-5--5--5--5-5-5-5--5--5--5--5-5-5-5--7--7--7--7-7-7-7--7--7--7------|
|-5--3--5--3-3-3-3--5--3--5--3-3-3-3--7--5--7--5-5-5-5--7--5--7------|
|-3-----3-----------3-----3-----------5-----5-----------5-----5------|
| |
|--------------------------------------------------------------------|
|--------------------------------------------------------------------|
|-7-7-7-7------------------------------------------------------------|
|-7-7-7-7-9----------------------------------------------------------|
|-5-5-5-5-9----------------------------------------------------------|
|---------7----------------------------------------------------------|
Fill
|----------------------------|
|--3-2-0---------------------|
|---------3-2-0--------------|
|----------------3-2-0-------|
|-----------------------3----|
|----------------------------|




Ваше мнение



Капча

Рекомендуем