Song: Tied in Bronze Chains
Band: Satyricon
Album: Rebel Extravaganza
Tabbed by: C.J. Clark (4/30/00) ([email protected])
Palm Mute = m
Trill = ~
Opening Riff: (x4)
e|-0----------0-------------------------------------------------
B|-----2/13-------2--2-------1----------------------------------
G|--------------------------------------------------------------
D|--------------------------------------------------------------
A|--------------------------------------------------------------
E|-----------------------7--------------------------------------
Riff 1: (x4)
e|-0000---------------0000--------------------------------------
B|-2222-2222-11111111-2222-2222-2222-1111-----------------------
G|-2222-4444-33333333-2222-4444-4444-3333-----------------------
D|------4444-33333333------4444-4444-3333-----------------------
A|--------------------------------------------------------------
E|--------------------------------------------------------------
Repeat Opening Riff (x4)
Repeat Riff 1 (x4)
Riff 2a: (x1) /this spot below has a funny little effect
e|-5---5-------5-----5------------------------------------------
B|-------7-------6~/5--7----------------------------------------
G|---7-----7-6-----------7--------------------------------------
D|--------------------------------------------------------------
A|--------------------------------------------------------------
E|--------------------------------------------------------------
Riff 2b: (x3) /this spot below has a funny little effect
e|-5---5-8-----5------5-----------------------------------------
B|---6-----6-5---5~/4---6---------------------------------------
G|------------------------6-------------------------------------
D|--------------------------------------------------------------
A|--------------------------------------------------------------
E|--------------------------------------------------------------
Riff 2c: (x2) /this spot below has a funny little effect
e|-5---5-8-----5---5--------------------------------------------
B|---6-----6-5---7---6------------------------------------------
G|---------------------5----------------------------------------
D|--------------------------------------------------------------
A|--------------------------------------------------------------
E|--------------------------------------------------------------
Repeat Riff 2b (x4)
Riff 3: (x4)
e|--------------------------------------------------------------
B|-4---3/6-----4---6/7------------------------------------------
G|-6---5/8-----6---8/9------------------------------------------
D|-6---5/8-----6---8/9------------------------------------------
A|--------------------------------------------------------------
E|--------------------------------------------------------------
m m m m
Riff 4: (x2)
e|--------------------------------------------------------------
B|-6--3-4-6--4--5--6--------------------------------------------
G|--------------------------------------------------------------
D|--------------------------------------------------------------
A|--------------------------------------------------------------
E|--------------------------------------------------------------
Repeat Riff 2b (x4)
Riff 5: (x4)
e|--------------------------------------------------------------
B|-777777-44-55-8-8-8-8-8-8-------------------------------------
G|-999999-66-77-101010101010------------------------------------
D|-999999-66-77-101010101010------------------------------------
A|--------------------------------------------------------------
E|--------------------------------------------------------------
Riff 6: (x4)
e|-5-------5--------5-------5-----------------------------------
B|---5-6-7---5-7-10---5-6-7---5-7-4-6---------------------------
G|--------------------------------------------------------------
D|--------------------------------------------------------------
A|--------------------------------------------------------------
E|--------------------------------------------------------------
Riff 7a: (x6)
e|--------------------------------------------------------------
B|-1-1-1-1----1-1-1-1----5-5-5-5----5-5-5-5---------------------
G|-3-3-3-3----3-3-3-3----7-7-7-7----7-7-7-7---------------------
D|-3-3-3-3----3-3-3-3----7-7-7-7----7-7-7-7---------------------
A|--------------------------------------------------------------
E|--------------------------------------------------------------
m m m m
**Guitar 2 plays**
Riff 7b: (x2) **On the 3rd and 5th times through 7a, play this**
e|--------------------------------------------------------------
B|-1----------1---------4---------------------------------------
G|---0-1--------0-1---4-----------------------------------------
D|-------0----------0-------------------------------------------
A|--------------------------------------------------------------
E|--------------------------------------------------------------
Riff 8a: (x3)
e|--------------------------------------------------------------
B|-8-8-8-8-8-8-8-8--5555-7-5------------------------------------
G|-1010101010101010-7777-9-7------------------------------------
D|--------------------------------------------------------------
A|--------------------------------------------------------------
E|--------------------------------------------------------------
Riff 8b: (x1)
e|--------------------------------------------------------------
B|-8-8-8-8-8-8-8-8--4444-5-3-1-00000000----------44444444-------
G|-1010101010101010-6666-7-5-3-22222222-55555555-66666666-------
D|--------------------------------------77777777----------------
A|--------------------------------------------------------------
E|--------------------------------------------------------------
E|--------------------------------------------------------------
Repeat Riff 8a (x4)
Repeat Riff 8b (x4)
Riff 9a (x4)
e|--------------------------------------------------------------
B|-8-8-8-8-8-8-8--5555555---------------------------------------
G|-10101010101010-7777777---------------------------------------
D|--------------------------------------------------------------
A|--------------------------------------------------------------
E|--------------------------------------------------------------
m m m m m m mmmmmm
Repeat Riff 8a (x4)
Riff 9b (x4)
e|--------------------------------------------------------------
B|--------------------------------------------------------------
G|-8-8-8-8-8-8-8--5555555---------------------------------------
D|-10101010101010-7777777---------------------------------------
A|--------------------------------------------------------------
E|--------------------------------------------------------------
m m m m m m mmmmmm
Riff 10a: (x4)
e|--------------------------------------------------------------
B|--------------------------------------------------------------
G|-7-6-6-6-6----------------------------------------------------
D|-9-8-8-8-8----------------------------------------------------
A|--------------------------------------------------------------
E|--------------------------------------------------------------
Riff 10b: (x1)
e|--------------------------------------------------------------
B|----9--6-4-------4-4-4--4-4-4-5--7-6-7-6-------2-2-2--2-2-2/4-
G|--7-11-8-6-9--8--6-6-6--6-6-6-7--9-8-9-8-10-9--4-4-4--4-4-4/6-
D|--9--------11-10-------------------------12-11----------------
A|--------------------------------------------------------------
E|--------------------------------------------------------------
m m m m m m m m m m m m
e|--------------------------------------------------------------
B|-8--7-8--7-------2-2-2--2-2-2/3-----9--6-4--------------------
G|-10-9-10-9-10-9--4-4-4--4-4-4/5--8--11-8-6--------------------
D|-----------12-11-----------------10---------------------------
A|--------------------------------------------------------------
E|--------------------------------------------------------------
m m m m m m m m
Riff 11: (x6)
e|-6-6-6-6-------------6-6-6-6----------------------------------
B|-8-8-8-8-5-5-5-5-5-5-8-8-8-8-5-5-5-5--------------------------
G|---------7-7-7-7-7-7---------7-7-7-7-6-6-5-5-3-5--------------
D|-------------------------------------8-8-7-7-5-7--------------
A|--------------------------------------------------------------
E|--------------------------------------------------------------
e|-6-6-6-6-------------7-7-7-7-6-6------------------------------
B|-8-8-8-8-5-5-5-5-5-5-9-9-9-9-8-8------------------------------
G|---------7-7-7-7-7-7------------------------------------------
D|--------------------------------------------------------------
A|--------------------------------------------------------------
E|--------------------------------------------------------------
Riff 12: (x4)
e|--------------------------------------------------------------
B|-7-7-8--7-7-2-3-5---7-7-8--7-7-2-5-4--------------------------
G|-9-9-10-9-9-4-5-7---9-9-10-9-9-4-7-6--------------------------
D|--------------------------------------------------------------
A|--------------------------------------------------------------
E|--------------------------------------------------------------
Repeat Riff 11 (x4)
Repeat Riff 12 (x4)
Riff 13: (x1)
e|--------------------------------------------------------------
B|---------------2----------------------------------------------
G|-6-----6-5-----4----------------------------------------------
D|-8-----8-7----------------------------------------------------
A|--------------------------------------------------------------
E|--------------------------------------------------------------
Riff 14: (x8)
e|----------6-6-6-6---------6-6-3-3-7-7-6-6---------------------
B|-6--7-7-7-8-8-8-8-6/7-7-7-8-8-5-5-9-9-8-8---------------------
G|-8--9-9-9---------8/9-9-9-------------------------------------
D|--------------------------------------------------------------
A|--------------------------------------------------------------
E|--------------------------------------------------------------
Repeat Riff 13 (x1)
Repeat Riff 14 (x8)
Repeat Riff 13 (x1)
Riff 15: (x4) **Begin fade out on 4th time through but play more**
e|-----7--------------------------------------------------------
B|-6-6-9-6-7-7-7-7-10-10-10-10-9--10-6-6-6-6-7-7-9--9--9--7-7---
G|-8-8---8-9-9-9-9-12-12-12-12-11-12-8-8-8-8-9-9-11-11-11-9-9---
D|--------------------------------------------------------------
A|--------------------------------------------------------------
E|--------------------------------------------------------------
e|-------7---------7-----------7--------------------------------
B|-6-6-6-9-6-7-7-6-9-6-10-10-6-9-6-6-7---6-6-10-8--7-7-7--------
G|-8-8-8---8-9-9-8---8-12-12-8---8-8-9---8-8-12-10-9-9-9--------
D|--------------------------------------------------------------
A|--------------------------------------------------------------
E|--------------------------------------------------------------
That's it. Good old Tied in Bronze Chains. Enjoy it! =)


Ваше мнение



Капча

Рекомендуем