-------------------------------------------------------------------------------
HERO OF OUR TIME - Satanic Surfers
-------------------------------------------------------------------------------

Intro:
e-|------------------------------------------------------------|
B-|------------------------------------------------------------|
G-|------------------------------------------------------------|
D-|-----------6-7-9-----------6-7-9----------------------------|
A-|---9-5-5-7---------9-5-5-7-------5-5-4-5-7-7-7-7-5-5-4-5-7--|
E-|-5---------------5------------------------------------------|

More intro:
e-|-----------------|---------------------|-----------------|
B-|---5-3-5---5-3-5-|-----3---5-----3-5-6-|-----5-5-3-3-----|
G-|-2-4-2-4-2-4-2-4-|-2-2-2-2-4-2-2-2-4-5-|-2-2-4-4-2-2-4-4-|
D-|-2-0-0-0-2-0-0-0-|-2-2-0-2-0-2-2-0-0-0-|-2-2-0-0-0-0-4-4-|
A-|-0-------0-------|-0-0---0---0-0-------|-0-0---------2-2-|
E-|-----------------|---------------------|-----------------|

Yet more intro:
e-|---------------------------------------------------------------------
B-|---------------------------------------------------------------------
G-|---------------------------------------------------------------------
D-|-----------6-7-9-----------6-7-9---------------------------7---------
A-|---9-5-5-7---------9-5-5-7-------5-5-4-5-7-7-7-7-5-5-4-5-9---9-7-----
E-|-5---------------5-----------------------------------------------9-7-

e-|-----------------------------------------------------------|
B-|-----------------------------------------------------------|
G-|------------------------------------------------9----------|
D-|---7-----------------------------------------11---11-9-7---|
A-|-9---9-7-----9-9-9-9-9-9-9-9-7-7-7-7-7-7-7-7-------------9-|
E-|---------9-7-----------------------------------------------|

Verse:
e-|-------------------------------------------------------------------------
B-|-------------------------------------------------------------------------
G-|-----------------------------------------------11-11-9-11-11-9-11-11-9---
D-|-------7-6-------6-6-6-7-7-7-7-7-7---7---------11-11-9-11-11-9-11-11-9---
A-|-7-7-7-5-4-4-4-4-4-4-4-5-5-5-5-5-5-9---9-7------9--9-7--9--9-7--9--9-7---
E-|-5-5-5-----2-2-2---------------------------9-7---------------------------

e-|-----------------------|
B-|-----------------------|
G-|-11-11-----------------|
D-|-11-11-9-9-9-9-9-9-9-9-|
A-|--9--9-7-7-7-7-7-7-7-7-|
E-|-----------------------|

Chorus:
e-|-------------------------------------------------------------------------|
B-|-------------------------------------------------------------------------|
G-|-------------------------------------------------------------------------|
D-|-----------------11-11-11-11-11-11-11-11-----------------7-7-7-7-7-7-7-7-|
A-|-7-7-7-7-9-9-9-9--9--9--9--9--9--9--9--9-7-7-7-7-9-9-9-9-5-5-5-5-5-5-5-5-|
E-|-5-5-5-5-7-7-7-7-------------------------5-5-5-5-7-7-7-7-----------------|

Bridge:
e-|-------------------------------|
B-|-------------------------------|
G-|-14--16--11--14----------------|
D-|-xx--xx---x--xx----------------|
A-|-12--14---9--12-12-11-9-11-9-7-|
E-|-------------------------------|

Outro:
e-|---------------------------------------------------------------------------|
B-|-----------------------------------5-------7--5---8-5----------------------|
G-|---------------------------1-------6-6-7-8-8--6-1-----7-4------------------|
D-|-----------6-7-9-----------2-6-7-8-7-------9--7-2---------7-5--------------|
A-|---9-5-5-7---------9-5-5-7-2-------7-------9--7-2-------------7-5--------2-|
E-|-5---------------5---------0--------------------0-----------------7-5-3^-0-|

-------------------------------------------------------------------------------


Ваше мнение



Капча

Рекомендуем