Song title: Tales of Kilimanjaro
Artist/Band: Santana
Album: Zebop!
Tab by: JC Rea ([email protected])
Symbols used:
h= hammer-on
/= slide-up
= slide-down
p= pull-off
////= tremolo picking
~~~= left hand vibrato
e|-1-----|
B|----3--|
G|-------|
D|-------|
A|-------|
E|-------|
0:12

e|----1--------1------------------1--------1--3----1--|
B|------3--------3------------------3------3--3----3--|
G|-2------2-------------------2-------2----2--2----2--|
D|----------------------------------------------------|
A|----------------------------------------------------|
E|----------------------------------------------------|
0:16
e|---7--|
B|---8--|
G|---9--|
D|------|
A|------|
E|------|
0:26
e|-1----1---1------1---1--------1------|
B|---3----3---3------3---3--------3----|
G|----------------------------------2--|
D|-------------------------------------|
A|-------------------------------------|
E|-------------------------------------|
0:34
e|--------------------------------------------|
B|--------------------------------------------|
G|--------------------------------------------|
D|--------------------------------------------|
A|-3/53-5---3-5-3-5-3-5-3-5-3-5-3-5-3-5-3-5--|
E|--------------------------------------------|
0:43
e|-7------------|
B|-8----6h8--6--|
G|-9------------|
D|--------------|
A|--------------|
E|--------------|
0:49
e|-1---------1h3----1--|
B|---3-------3---------|
G|-----2---------------|
D|---------------------|
A|---------------------|
E|---------------------|
0:56
e|-----------8~~~--------8-------------|
B|-------10----------10-----10---------|
G|-8/10-------------------------10~~~--|
D|-------------------------------------|
A|-------------------------------------|
E|-------------------------------------|
1:06
e|--------8-12-8~~~---------8-------------|
B|----10----------------10-----10---------|
G|-10------------------------------10~~~--|
D|----------------------------------------|
A|----------------------------------------|
E|----------------------------------------|
1:15
e|-10-13-12-15-13-10h12p10------12--8/108------|
B|--------------------------14--------------10--|
G|----------------------------------------------|
D|----------------------------------------------|
A|----------------------------------------------|
E|----------------------------------------------|
1:25
e|-10-8--------8------------------------|
B|------10-8------10-8------10-8--------|
G|----------------------10--------10-7--|
D|--------------------------------------|
A|--------------------------------------|
E|--------------------------------------|
1:31
e|-------------------------------------------------------------|
B|-8-----------------------------------------------------------|
G|---10-------7-10-7-------7-----------------------------------|
D|--------10---------10-7----10-7-----7-10-7--------------5/7--|
A|--------------------------------10----------10--8///---------|
E|-------------------------------------------------------------|

e|--------------------------|
B|------6-------4/5---------|
G|-5h7-----7-5-------5-5/7--|
D|--------------------------|
A|--------------------------|
E|--------------------------|
1:40
e|--------------------------|
B|------6-------4/5---------|
G|-5h7-----7-5-------5-5/7--|
D|--------------------------|
A|--------------------------|
E|--------------------------|
e|--------------------------|
B|------6-------4/5---------|
G|-5h7-----7-5-------5-5/7--|
D|--------------------------|
A|--------------------------|
E|--------------------------|
e|---------------------------------------------|
B|------6-------4/5----5/65-------------------|
G|-5/7-----7-5-------5--------7~~~----5p4h5p4--|
D|---------------------------------------------|
A|---------------------------------------------|
E|---------------------------------------------|
e|-1------1------1h3-1--1---1----|
B|---3------3----3--------3---3--|
G|-----2------2------------------|
D|-------------------------------|
A|-------------------------------|
E|-------------------------------|
2:03
e|-1------1h3--1--|
B|---3----3----3--|
G|-----2----------|
D|----------------|
A|----------------|
E|----------------|

e|---------------------------------------|
B|---------------------------------------|
G|---------------------------------------|
D|-----------7---7-7---5-5------7---7-7--|
A|-5////---5---5-------3-3----5---5------|
E|---------------------------------------|
2:15
e|---------------------------------------|
B|---------------------------------------|
G|---------------------------------------|
D|-----------7---7-7---5-5------7---7-7--|
A|---------5---5-------3-3----5---5------|
E|---------------------------------------|

e|-1---1---1--------1h3--|
B|---3---3---3------3----|
G|-------------2---------|
D|-----------------------|
A|-----------------------|
E|-----------------------|
2:32
e|----------------------------------------|
B|----------------------------------------|
G|----------------------------------------|
D|-----0-0-0------0-0-0-------0--------0--|
A|-1/3--------1/3---------1/3-----1/3-----|
E|----------------------------------------|
2:37
e|-1-----1-------1h3--|
B|---3-----3-----3----|
G|-----2-----2--------|
D|--------------------|
A|--------------------|
E|--------------------|
2:44
e|-10-8----------------------------------------|
B|------10-8-----------------------------------|
G|-----------10----7-7------5-7----------------|
D|--------------10--------------5-7------------|
A|----------------------------------8-3-3/5-5--|
E|---------------------------------------------|
2:54
e|-10-8----------------------------------------|
B|------10-8-----------------------------------|
G|-----------10----7-7------5-7----------------|
D|--------------10--------------5-7------------|
A|----------------------------------8-3-3/5-3--|
E|---------------------------------------------|
e|-1------1--------1-3--|
B|---3------3------3----|
G|------------2---------|
D|----------------------|
A|----------------------|
E|----------------------|
3:03...End
Comments: [email protected]


Ваше мнение



Капча

Рекомендуем