Song Title: Flor D' Luna
Artist/Band: Santana
Album: Moonflower, 1977.
Tab by JC Rea([email protected])
Symbols:
h=hammer-on
p=pull-off
/=slide-up
=slide-down
~=left hand vibrato
e|------10--8-----------|-10-8----------|
B|---10-------11-10~~~--|------11-10-8--|
G|-7--------------------|---------------|
D|----------------------|---------------|
A|----------------------|---------------|
E|----------------------|---------------|
0:00
e|-----------------|-------8-------10--|
B|------8------10--|-10-11---11-10-----|
G|-9-10---10-9-----|-------------------|
D|-----------------|-------------------|
A|-----------------|-------------------|
E|-----------------|-------------------|
0:08
e|----------------------------|---------------------|
B|-8--10--10/11--10--8--8h10--|----8--8h10--8----8--|
G|----------------------------|-10------------10----|
D|----------------------------|---------------------|
A|----------------------------|---------------------|
E|----------------------------|---------------------|
0:16
e|-------------------|
B|-------8-----------|
G|-9-10----10-----7--|
D|------------10-----|
A|-------------------|
E|-------------------|
0:20

e|------10--8-----------|-10-8----------|
B|---10-------11-10~~~--|------11-10-8--|
G|-7--------------------|---------------|
D|----------------------|---------------|
A|----------------------|---------------|
E|----------------------|---------------|
0:24
e|-----------------|-------8-------10--|
B|------8------10--|-10-11---11-10-----|
G|-9-10---10-9-----|-------------------|
D|-----------------|-------------------|
A|-----------------|-------------------|
E|-----------------|-------------------|
0:31
e|----------------------------|---------------------|
B|-8--10--10/11--10--8--8h10--|----8--8h10--8----8--|
G|----------------------------|-10------------10----|
D|----------------------------|---------------------|
A|----------------------------|---------------------|
E|----------------------------|---------------------|
0:39
e|-------------------|
B|-------8-----------|
G|-9-10----10-----7--|
D|------------10-----|
A|-------------------|
E|-------------------|
0:43

e|-----------10~~~--|-13-12-10-12-----8h10--8--|
B|-10-11--13--------|-------------10-----------|
G|------------------|--------------------------|
D|------------------|--------------------------|
A|------------------|--------------------------|
E|------------------|--------------------------|
0:47
e|----------|-------------------------|
B|-11-10-8--|-------8--10--10/11--10--|
G|----------|-9-10--------------------|
D|----------|-------------------------|
A|----------|-------------------------|
E|----------|-------------------------|
0:56
e|-----------10~~~--|-15-13-12-13-15-12--8-8-----8h10-8h10--8--|
B|-10-11-13---------|-------------------------10---------------|
G|------------------|------------------------------------------|
D|------------------|------------------------------------------|
A|------------------|------------------------------------------|
E|------------------|------------------------------------------|
1:03
e|----------|-----------------|
B|-8--------|------8----------|
G|---10--9--|-9-10---10----7--|
D|----------|-----------10----|
A|----------|-----------------|
E|----------|-----------------|
1:12

e|------10--8-----------|-10-8----------|
B|---10-------11-10~~~--|------11-10-8--|
G|-7--------------------|---------------|
D|----------------------|---------------|
A|----------------------|---------------|
E|----------------------|---------------|
1:18
e|-----------------|-------8-------10--|
B|------8------10--|-10-11---11-10-----|
G|-9-10---10-9-----|-------------------|
D|-----------------|-------------------|
A|-----------------|-------------------|
E|-----------------|-------------------|
1:26
e|----------------------------|---------------------|
B|-8--10--10/11--10--8--8h10--|----8--8h10--8----8--|
G|----------------------------|-10------------10----|
D|----------------------------|---------------------|
A|----------------------------|---------------------|
E|----------------------------|---------------------|
1:34
e|-------------------|
B|-------8-----------|
G|-9-10----10-----7--|
D|------------10-----|
A|-------------------|
E|-------------------|
1:38

e|--------------|-----------10--------|
B|-10-11-10--8--|-10-11-10-----10--8--|
G|--------------|---------------------|
D|--------------|---------------------|
A|--------------|---------------------|
E|--------------|---------------------|
1:47
e|----------------------|--------------10-----------|
B|-11-8-11--10-11-10-8--|---11-8-11-10-----8h10--8--|
G|----------------------|-9-------------------------|
D|----------------------|---------------------------|
A|----------------------|---------------------------|
E|----------------------|---------------------------|
1:54
e|--------------------------------------------------|
B|----8-8-8-8h10------------------------------8-10--|
G|-10----------------10p7-10p7-----------7-10-------|
D|-------------------------------------7------------|
A|-----------------------------10-8-10--------------|
E|--------------------------------------------------|
2:02
e|----10--------12--------10----12-----|-----13-13-13-13--|
B|-10----10--10----10--10----10----10--|-10---------------|
G|-------------------------------------|------------------|
D|-------------------------------------|------------------|
A|-------------------------------------|------------------|
E|-------------------------------------|------------------|
2:06
e|-13p12----10--10---------------------------------|
B|-------13---------13--10-------------------------|
G|--------------------------12--10------10--12-10--|
D|----------------------------------12-------------|
A|-------------------------------------------------|
E|-------------------------------------------------|
2:13
e|---------------------------------------------8-10-8--------------------|
B|-6-8-8---6-8-8---6-8-8---6-8-8---6-8-8--6-10--------10--------8--------|
G|-------------------------------------------------------8---10---10--7--|
D|-----------------------------------------------------------------------|
A|-----------------------------------------------------------------------|
E|-----------------------------------------------------------------------|
2:16
e|-15-15-15-15-15-15-15-15p13--------|
B|----------------------------13-15--|
G|-----------------------------------|
D|-----------------------------------|
A|-----------------------------------|
E|-----------------------------------|
2:21
e|-------------------------13-12--12/13--12--|
B|-15-13-10----------10-13-------------------|
G|----------12-10-12-------------------------|
D|-------------------------------------------|
A|-------------------------------------------|
E|-------------------------------------------|
e|-13p12p10-13---13p12p10-13---13p12p10-13---13p12p10-13--|
B|--------------------------------------------------------|
G|--------------------------------------------------------|
D|--------------------------------------------------------|
A|--------------------------------------------------------|
E|--------------------------------------------------------|
2:29
e|-13p12p10---13p12p10---13p12p10---13p12p10--|
B|--------------------------------------------|
G|--------------------------------------------|
D|--------------------------------------------|
A|--------------------------------------------|
E|--------------------------------------------|
e|-13p12p10---13p12p10---13-12---13-12-10--|
B|-----------------------------------------|
G|-----------------------------------------|
D|-----------------------------------------|
A|-----------------------------------------|
E|-----------------------------------------|
e|-13-12-10---13-12---13-12---10-10---12---13-12---13-12--|
B|--------------------------------------------------------|
G|--------------------------------------------------------|
D|--------------------------------------------------------|
A|--------------------------------------------------------|
E|--------------------------------------------------------|
e|-17--17-18--17--15----20---18-17-17--17-18-17--|
B|-----------------------------------------------|
G|-----------------------------------------------|
D|-----------------------------------------------|
A|-----------------------------------------------|
E|-----------------------------------------------|
2:36
e|-10/12--12--12---15--10--13-----12------10--|
B|----------------------------13------13------|
G|--------------------------------------------|
D|--------------------------------------------|
A|--------------------------------------------|
E|--------------------------------------------|
e|-13p12p10-13---13p12p10-13---13p12p10-13--|
B|------------------------------------------|
G|------------------------------------------|
D|------------------------------------------|
A|------------------------------------------|
E|------------------------------------------|
e|-13p12p10---13p12p10---13p12p10---13p12p10---13p12p10---13p12p10--|
B|------------------------------------------------------------------|
G|------------------------------------------------------------------|
D|------------------------------------------------------------------|
A|------------------------------------------------------------------|
E|------------------------------------------------------------------|
e|---------------------------------------|
B|---------------------------------------|
G|---------------------------------------|
D|--------------------------12-11-14-12--|
A|-8-7--10-7--12-10--13-12---------------|
E|---------------------------------------|
2:49

e|----------10~~~--|-13-12-10-12--8-----8h10--8--|
B|-10-11-13--------|----------------10-----------|
G|-----------------|-----------------------------|
D|-----------------|-----------------------------|
A|-----------------|-----------------------------|
E|-----------------|-----------------------------|
2:55
e|----------|---------------------|
B|-11-10-8--|------8--10--11--10--|
G|----------|-9-10----------------|
D|----------|---------------------|
A|----------|---------------------|
E|----------|---------------------|
3:04
e|----------10~~~--|-15-13-12-13-15-12--8-8----8h10-8h10--8--|
B|-10-11-13--------|------------------------10---------------|
G|-----------------|-----------------------------------------|
D|-----------------|-----------------------------------------|
A|-----------------|-----------------------------------------|
E|-----------------|-----------------------------------------|
3:11
e|-----------|------------------|
B|-7/8-------|-------8----------|
G|-----10-9--|-9--10---10----7--|
D|-----------|------------10----|
A|-----------|------------------|
E|-----------|------------------|
3:20

e|------10-8-----------------------------------------|-10-8----------|
B|---10------11-10h11p10h11p10h11p10h11p10h11p10~~~--|------11-10-8--|
G|-7-------------------------------------------------|---------------|
D|---------------------------------------------------|---------------|
A|---------------------------------------------------|---------------|
E|---------------------------------------------------|---------------|
3:26
e|-----------------|-------8-------10--|
B|------8------10--|-10-11---11-10-----|
G|-9-10---10-9-----|-------------------|
D|-----------------|-------------------|
A|-----------------|-------------------|
E|-----------------|-------------------|
3:34
e|----------------------------|---------------------|
B|-8--10--10/11--10--8--8h10--|----8--8h10--8----8--|
G|----------------------------|-10------------10----|
D|----------------------------|---------------------|
A|----------------------------|---------------------|
E|----------------------------|---------------------|
3:42
e|-------------------|
B|-------8-----------|
G|-9-10----10-----7--|
D|------------10-----|
A|-------------------|
E|-------------------|

e|----------------------------|---------------------|
B|-8--10--10/11--10--8--8h10--|----8--8h10--8----8--|
G|----------------------------|-10------------10----|
D|----------------------------|---------------------|
A|----------------------------|---------------------|
E|----------------------------|---------------------|
3:49
e|-------------------|
B|-------8-----------|
G|-9-10----10-----7--|
D|------------10-----|
A|-------------------|
E|-------------------|
e|----------------------------|---------------------|
B|-8--10--10/11--10--8--8h10--|----8--8h10--8----8--|
G|----------------------------|-10------------10----|
D|----------------------------|---------------------|
A|----------------------------|---------------------|
E|----------------------------|---------------------|
3:57
e|-------------------|
B|-------8-----------|
G|-9-10----10-----7--|
D|------------10-----|
A|-------------------|
E|-------------------|
e|-------------------------|
B|---8--10--11--8--11--10--|
G|-9-----------------------|
D|-------------------------|
A|-------------------------|
E|-------------------------|
4:05
e|----10---------12---------13----12-----|
B|-10----10---10----10---10----10----10--|
G|---------------------------------------|
D|---------------------------------------|
A|---------------------------------------|
E|---------------------------------------|
4:08
e|----12----15-----|
B|-10----10----10--|
G|-----------------|
D|-----------------|
A|-----------------|
E|-----------------|
e|---------------------------------10----------------|
B|-10--10/11--8---11--8--11-11--10------10--8/10--8--|
G|---------------------------------------------------|
D|---------------------------------------------------|
A|---------------------------------------------------|
E|---------------------------------------------------|
4:15
e|-----------------------------------------10---------------------|
B|-11-10h11-10---11--8/10--8---11--8-11-10----8-----6---8--6/86--|
G|-----------------------------------------------7----------------|
D|----------------------------------------------------------------|
A|----------------------------------------------------------------|
E|----------------------------------------------------------------|
e|----------------------------------------------------------------------------|
B|-----6-------6-------6-------6-------6-------6-------6-------6--------------|
G|-5h7-----5h7-----5h7-----5h7-----5h7-----5h7-----5h7-----5h7-------------5--|
D|----------------------------------------------------------------5--3--7-----|
A|----------------------------------------------------------------------------|
E|----------------------------------------------------------------------------|
4:29
e|---------------------------------------------------------------------|
B|-6/8-6---6/8-6---6/8-6---6/8-6---6/8-6--6/8-6---6/8-6---6/8-6---6/8--|
G|---------------------------------------------------------------------|
D|---------------------------------------------------------------------|
A|---------------------------------------------------------------------|
E|---------------------------------------------------------------------|
4:33
e|-10---|
B|------|
G|------|
D|------|
A|------|
E|------|. . . END
4:41
Comments: [email protected]


Ваше мнение



Капча

Комментарии

Petr
Тут аккордами и не пахнет

Рекомендуем