This song is extremely easy. I'll put up the rest of it later
| / slide up
| slide down
| h hammer-on
e|-----------------------------------------11--------------------------------|
B|--------------------------------12-12-12----12-12-12-14----------12----12-14
G|--8--6--h8-/9-8-/9--8--h9--11--------------------------11-11-11----13-----|
D|---------------------------------------------------------------------------|
A|---------------------------------------------------------------------------|
E|---------------------------------------------------------------------------|
e|----------------------------------11---------------------------------------|
B|-12-12-------12----12-12-12-12-14----12-12------12--12-12-12-14------------|
G|-------13-11----11-------------------------13-11--11------------11 11------|
D|---------------------------------------------------------------------------|
A|---------------------------------------------------------------------------|
E|---------------------------------------------------------------------------|
e|----------------------------------11---------------------------------------|
B|-12-12-------12----12-12-12-12-14----12-12------12--12-12-12-14------------|
G|-------13-11----11-------------------------13-11--11------------11 11------|
D|---------------------------------------------------------------------------|
A|---------------------------------------------------------------------------|
E|---------------------------------------------------------------------------|

The rest is pretty self explanitory. Well E-mail me for any suggestions
For my first tab, i think it's pretty good.


Ваше мнение



Капча

Рекомендуем