#-----------------------------PLEASE NOTE-------------------------------------#
#This OLGA file is the author's own work and represents their interpretation #
#of the song. You may only use this file for private study, scholarship, or #
#research. Remember to view this file in Courier, or some other monospaced #
#font. See http://www.olga.net/faq/ for more information. #
#-----------------------------------------------------------------------------#
Date: Wed, 30 Aug 2000 15:26:49 -0400
From: jordan L
Subject: s/santana/evil_ways.tab
Artist: Santana
Song: Evil Ways
Album: Best of Santana
Transcribed by [email protected]
I was surprised to find that no one had already figured this
song out yet. This is from the Best of Santana and I don't know
if there is another version of this song. I say this because
I saw a Chord file that said the chords are Am, D, E, whereas
on my CD they are Gm, C, D (2 frets down)
Tablature explanation:
h - hammer on
p - pull off
^ - bend
Intro riff - also used later in song:
|---------------------------------|
|---------------------------------|
|---------------------------------|
|-8--10^--10^--10p8-----8---------|
|-------------------10-----10-----|
|---------------------------------|

|---------------|
|---------------|
|---------3-----|
|------3--------|
|-3h5-----------|
|-------(2:28)--|

|---------------------------------------|
| (2:51)--------------------------------|
|---------------------------------------|
|---------------------------------------|
|-5--5---3--3---1--1--1-1--1-1--1-------|
|---------------------------------3-1---|

Solo
|-3h6-------6--6-6--6--6-----6--6p5p3--5----3----------|
|-----------------------------------------6----5h6p3---|
|------------------------------------------------------|
|------------------------------------------------------|
|------------------------------------------------------|
|-(3:00)-----------------------------------------------|

|--------------------------------------------------------|
|-----10--11---13--13---11--13--13----11--13--13------11-|
|-12----------------------------------------------12-----|
|--------------------------------------------------------|
|--------------------------------------------------------|
|-(3:05)-------------------------------------------------|

|----------------------------------
|--13h15----13h15---15--11---------
|---------------------------12-----
|----------------------------------
|----------------------------------
|-(3:09)---------------------------

-----------12h13---13--13--13---12--12------------------------------------|
-13h15-----------------------------------15--15---13--13------------------|
-----------------------------------------------------------15--15---12----|
--------------------------------------------------------------------------|
--------------------------------------------------------------------------|
--------------------------------------------------------------------------|

|-3--5--6--3--5-----3---------------------3-----------------------------|
|----------------6-----5--6--3---------3-----6--3-----------------------|
|-----------------------------------5^-------------5^r--3--5p3----------|
|--------------------------------------------------------------5--------|
|-----------------------------------------------------------------------|
|-(3:14)----------------------------------------------------------------|

|-3h6-5-----3--6--5-----3--6--5-----3--6--5----3--5h6p5--3------|
|--------6-----------6-----------6-----------6------------------|
|---------------------------------------------------------------|
|---------------------------------------------------------------|
|---------------------------------------------------------------|
|-(3:18)--------------------------------------------------------|

|------------------------------------------------------------|
|-11h13-----13--11--13--11--13--11--13--11--13--11--13--11---|
|------------------------------------------------------------|
|------------------------------------------------------------|
|------------------------------------------------------------|
|-(3:23)-----------------------------------------------------|

|-------15----------15----|
|-/15-------15h17---------|
|-------------------------|
|-------------------------|
|-------------------------|
|-(3:26)------------------|

|-18--17--15--17------15h18p15------|
|-----------------18----------15----|
|-----------------------------------|
|-----------------------------------|
|-----------------------------------|
|-(3:28)----------------------------|

|-18-p-17-p-15----18-p-17-p-15----18-p-17-p-15----18-p-17-p-15----
|-----------------------------------------------------------------
|-----------------------------------------------------------------
|-----------------------------------------------------------------
|-----------------------------------------------------------------
|-(3:30)----------------------------------------------------------

-18-17-15--18-17-15--18-17-15--18-17-15--18-17-15--18-17-15--18-17-15---|
---p--p------p--p------p--p------p--p------p--p------p--p------p--p-----|
------------------------------------------------------------------------|
------------------------------------------------------------------------|
------------------------------------------------------------------------|
------------------------------------------------------------------------|

|--18^-------18-^r-------20^-------20^------18-20-----18-----------------|
|--------------------------------------------------20-----18-20----------|
|----------------------------------------------------------------17-19---|
|------------------------------------------------------------------------|
|------------------------------------------------------------------------|
|-(3:34)-----------------------------------------------------------------|

|---------15-15----------15------15---------------15--------------15------------|
|-----15---------15--18^-----18^--------------15------18--15--18^---------------|
|-17^-------------------------------------17^-------------------------17^r -15 -|
|-------------------------------------------------------------------------------|
|-------------------------------------------------------------------------------|
|-(3:40)------------------------------------------------------------------------|

|-----15------15------15-15--15----------------------------------------------|
|-18^-----18^-----18^--------------------------------------------------------|
|----------------------------------------------------------------------------|
|----------------------------------------------------------------------------|
|-------------------------------keep playing on these notes and fade out-----|
|-(3:43)---------------------------------------------------------------------|


Ваше мнение



Капча

Рекомендуем