I picked it from www.gitarrehamburg.de, but I hope it is OK. "Holle"
Intro: Play twice then play twice again with vocal followed by
Fill 1
--------------------------------2-3----------
------------3--------------------------------
-----------------0----------2----------------
--------0---------------0--------------------
---------------------------------------------
----3----------------------------------------
--------------------------------2h3----------
----------2------------------3---------------
---------------0----------2------------------
-------2--------------0----------------------
----3----------------------------------------
---------------------------------------------
It's amazing ...
Without saying ...
|=============================Fill 1===========================|
---------------------0-----------------------
------------3-----------------3--------------
-----------------0-------0--------0----------
--------0------------------------------------
---------------------------------------------
----3----------------------------------------
---------------------0-----------------------
------------3----------------3---------------
-----------------0-----0---------0-----------
--------2------------------------------------
----3----------------------------------------
---------------------------------------------
------------------------------------2-3------
-------------3-------------------------------
------------------0-------------2------------
---------0-----------------0-----------------
---------------------------------------------
----3----------------------------------------
------------------------------------------0-------------
------------3--------------------3--------------3-------
----------------0-----------2-------2------2-------2----
---------2--------------0-------------------------------
-----3--------------------------------------------------
--------------------------------------------------------
-----------------------0---------------------
--------------3----------------3-------------
-------------------0------0--------0---------
---------2-----------------------------------
----3----------------------------------------
---------------------------------------------
Try as ...
What I ...
Chorus: ( strumming )
G5 Dsus4
The smile on ...
Cadd9 D
that ....
G5
There's a truth ....
Dsus4 Cadd9 D
you'll ...
G5
The touch of ...
Dsus4 Cadd9 D G5 Dsus4
catch me wherever ....
Cadd9 D G5 Dsus4
You say it best
Cadd9
when you say nothing at all
G5 Dsus4 Cadd9 D
(stum this 4 ch. 2)
G5 Dsus4 Cadd9 D
All day long I ...
G5 Dsus4 Cadd9 D
G5 Dsus4 Cadd9
But when you hold me ....
D G5 Dsus4 Cadd9 D
G5 Dsus4 Cadd9 D
Try ...
G5 Dsus4 Cadd9 D
What's ....
* Repeat chorus strumming followed by strumming
G5 Dsus4 Cadd9 D
4 times over flute solo. After that repeat chorus
strumming till the line"....in your eyes saying you"ll.."
After that play Fill 2.

|=============================Fill 2===========================|
-----------------------------------3---
------------3------------------3-------
----------------0----------2-----------
--------0--------------0---------------
---------------------------------------
----3----------------------------------
------------------0-------------------------0---------------
-----------3-----------3--------------3-------3-------------
---------------0----0----0--------2-----2-------2-----------
-------2------------------------0--------------------0------
----3-------------------------------------------------------
------------------------------------------------------------
----------------------------2-3--------
-----------3---------------------------
---------------0--------2--------------
-------0-------------0-----------------
---------------------------------------
----3----------------------------------
Cadd9 (strum down once) D(strum down once)
--------------------0----------------------------------------
--------------3------------3---------------------------------
-----------------0-----0-----0-------------------------------
-------------------------------------------------------------
----------3--------------------------------------------------
-------------------------------------------------------------
The touch of your hand says you'll catch me wherever I fall
You say it best when you say nothing at all.
*After Fill 2 play intro 2 times then
strum G5 Dsus4 Cadd9 D to fade. That's it!
Chords:
G5 Dsus4 Cadd9 D
------3------------3-----------3----------2-------
------3------------3-----------3----------3-------
------0------------2-----------0----------2-------
------0------------0-----------2----------0-------
------2------------0-----------3----------x-------
------3------------x-----------0----------x-------


Ваше мнение



Капча

Рекомендуем