T1: Mellow, [email protected], Ronan Keathing, This is Your song,
1999/09/01
S2: Not mutch
S1: This is your song - Ronan Keating
{I'm sure there's mistakes, so please correct them and let me know so
that
I can also learn something from this piece....thx - Mellow at :
[email protected]}

Chords I use :
EADGBe
||||||
A : 002220
F#m : 244222
D9 : XX0230 or 557755
E : 022100 or 779997 {E opt.}
D : XX0232 or 557775 {E opt.}
I start with my fingers like this:
Fret 1 2 3 4 5
e|---|-i-|---|-m-|-p-|-->
B|---|-i-|---|---|-p-|-->
B|---|-i-|---|---|---|-->
B|---|---|---|---|---|-->
B|---|---|---|---|---|-->
B|---|---|---|---|---|-->
and just move them around :-)


Intro:**
*
e|-----5-----5-----5-4---------5-----5-----5-4-5----|
B|---5-----5-----5-------5---5-----5-----5-------5--|
G|-2-----2-----2-------2----------------------------|
D|-------------------------0-----0-----0------------|
A|--------------------------------------------------|
E|--------------------------------------------------|


Live your life to the full
Bring a life time of smiles
Made us know right from wrong
Always know when I lie
* Live your.......
e|-----5-----5-----5-4---------5-----5-----5-----4-|
B|---5-----5-----5-------5---5-----5-----5-----5---|
G|-2-----2-----2-------2---------------------------|
D|-------------------------0-----0-----0-----0-----|
A|-------------------------------------------------|
E|-------------------------------------------------|

Bring a..... Made us......
e|-----5-----5-----5-4---------5-----5-----5-|
B|---5-----5-----5-------5---5-----5-----5---|
G|-2-----2-----2-------2---------------------|
D|-------------------------0-----0-----0-----|
A|-------------------------------------------|
E|-------------------------------------------|

.....know Always know.....
e|----5----5-----5-----------5-------------5-|
B|--5-----5-----5-------5---5------5-----5---|
G|--------------------2----------2-----2-----|
D|2-----4-----4-----2-----2----0-----0-----0-|
A|-------------------------------------------|
E|-------------------------------------------|

Verse : 2
You made us be tough
but never to rough
Rise aboves what you said
never easily learn
And one day well all sing along
You made..... But never.... Rise......
e|-----5-----5-----5-----4-----5-----5-----5-|
B|---5-----5-----5-----5-----5-----5-----5---|
G|-2-----2-----2-----------------------------|
D|-------------------2-----0-----0-----0-----|
A|-------------------------------------------|
E|-------------------------------------------|

......aboves Never.....
e|-----5-----5-----5-----------7-----------5-|
B|---5-----5-----5-------5---5-------5-----5-|
G|---------------------2-----------2-----2---|
D|-2-----4-----4-----2-----2-----0-----0-----|
A|-------------------------------------------|
E|-------------------------------------------|
And one day ... all.... along
e|-----5-----5-----5-----5-----4-------------|
B|---5-----5-----5-----5-----5-------5-------|
G|-------------2-----2-------------2---------|
D|-0-----0-----------------2-----2-----0-----|
A|-------------------------------------------|
E|-------------------------------------------|

Chrus :
A
Cause this is your song
D9
I wrote it for you
F#m
It wont take all day
D
just a minute or two
A
You are our friend
D9
walk with you till the end
F#m E D
And one day well all sing along

Cause this is....

.....your song
e|-----5-----5-----5-4---------5-----5-----5-4-5---
B|---5-----5-----5-------5---5-----5-----5-------5--|
G|-2-----2-----2-------2----------------------------|
D|-------------------------0-----0-----0------------|
A|--------------------------------------------------|
E|--------------------------------------------------|
Verse : 3 {Verse 3 and 4 you can play like 1 & 2 or just play A, D9,
F#m, E and D. U'll see
I've tabbed the cords here just to save me some time}

A
So we'll try and go on
D9
Loving all that we know
F#m E
through the hardest of times
D
you put on a show
Verse : 4
A
You made us stand tall
D9
When all around us would fall
F#m E
Even when you're alone
D
You believe you can fly
F#m E D
And one day we'll all sing along
{U can work the riffs in here i u like}
Chorus : A
Cause this is your song
D9
I wrote it for you
F#m
It wont take all day
D
just a minute or two
A
You are our friend
D9
walk with you till the end
F#m E D
And one day well all sing along
A
Cause this is your song

D9, F#m, D

Chaww...
F#m E D
And one day well all sing along

A
Cause this is your song
D9
We wrote it for you
F#m
It'll take all our lives
D
just to help us get through
A
You are our friend
D9
walk with you till the end
F#m E D
And one day well all sing along
A
Cause this is your song


Ваше мнение



Капча

Рекомендуем