song: Storm cloud
Artist: Reminition
intro
e|---------------------------------------|
b|---------------------------------------|
g|---------------------------------------|
d|------7--------3---------9----------5--|
a|----5-------1---------7---------3------|
d|--o-------0--------0---------0---------|
verse
e|------------------------------------|
b|------------------------------------|
g|------------------------------------|
d|----0-xxxxxxxx---3-xxxx---1-xxxx----|
a|----0-xxxxxxxx---3-xxxx---1-xxxx----|
d|----0-xxxxxxxx---3-xxxx---1-xxxx----|
chorus
e|-------------------------------------------|
b|-------------------------------------------|
g|-------------------------------------------|
d|--00000000--3333-2222-00000000--5555-3333--|
a|--00000000--3333-2222-00000000--5555-3333--|
d|--00000000--3333-2222-00000000--5555-3333--|
interlude
e|-------------------|
b|-------------------|
g|-------------------|
d|---7---3---9---5---|
a|---5---1---7---3---|
d|---0---0---0---0---|
intro x4
verse x4
chorus x2
verse x4
chorus x2
verse x4
chorus x2
inter x2
chorus x4
intro x4


Ваше мнение



Капча

Рекомендуем