Tora Tora
------------
Musica:Raimundos
Tab:Marcos

Obs.:Afinar 6a corda em D(1 tom abaixo)
~~== Vibrar
xx== Corda/Nota Abafada
/== Deslizar de uma nota p/outra
Riff1
E|------------------------------------------------|
B|------------------------------------------------|
G|------------------------------------------------|
D|------------------------------------------------|
A|------------1-1-1----------------1-1-1----------|
D|-0-0--0-0-0-------3-5-0-0--0-0-0-------3-2-0-0--|

E|-------------------------------------|
B|-------------------------------------|
G|-------------------------------------|
D|-----------------------------------x-|
A|--------1-1-1----------------------x-|
D|--0-0-0-------3~~0-0--0-0-0--3-3-2-x-|

Riff2 A A# A A/A#/A


Ваше мнение



Капча

Рекомендуем