SELIM
Musica:Raimundos
Tab:Marcos
OBS: / = Deslizar de uma nota p/outra(Slide)
Intro:
G C G C G Bm D
E:|---------------|-----------------------|-----------------------|---------------------------|
B:|---------------|-7/8-8-8-7-8-8-7-5-5---|-7/8-8-8-7-8-8-7-5-5---|---------------------------|
G:|-3/4-4-5-4/7-7-|---------------------7-|---------------------7-|-3/4-4-4-5-4-5-4-5-7-7-7-7-|
D:|---------------|-----------------------|-----------------------|---------------------------|
A:|---------------|-----------------------|-----------------------|---------------------------|
E:|---------------|-----------------------|-----------------------|---------------------------|
G C G C D G
E:|---------------|-----------------------|-------------------5-------------------|
B:|---------------|-7/8-8-8-7-8-8-7-5-5---|-7/8-8-8-7-8-8-7-8---7-----------------|
G:|-3/4-4-5-4-----|---------------------7-|-----------------------7-7-7-5-4-------|
D:|-----------5-5-|-----------------------|---------------------------------5-5/0-|
A:|---------------|-----------------------|---------------------------------------|
E:|---------------|-----------------------|---------------------------------------|
G C G
Eu queria ser o banquinho da bicicleta
C G
pra ficar bem no meio das pernas
Bm D
e sentir o seu anus suar
G C G
Eu queria ser a calcinha daquela menina
C D
pra ficar bem perto da vagina
G
e as vezes ate' me molhar
A B C G
Mas eu nao sei o que se passa nesta cabecinha
D
E'claro que e'a da minha
G
voce nao pode duvidar
A B C
Fica quieto
G
Nao me deixe envergonhado
D G
Pois se eu ficar excitado a minha calca vai estourar
Solo:
G C G C G Bm D
E:|---------------|-----------------------|-------------5---------|---------------------------|
B:|---------------|-7/8-8-8-7-8-8-7-5-5---|-7/8-8-8-7-8---8-7-5---|---------------------------|
G:|-3/4-4-5-4/7-7-|---------------------7-|---------------------7-|-3/4-4-4-5-4-5-4-5-7-7-7-7-|
D:|---------------|-----------------------|-----------------------|---------------------------|
A:|---------------|-----------------------|-----------------------|---------------------------|
E:|---------------|-----------------------|-----------------------|---------------------------|
G C G C D G
E:|---------------|-----------------------|-------------------5-5-7-8-10-7-7/0-|
B:|---------------|-7/8-8-8-7-8-8-7-5-5---|-7/8-8-8-7-8-8-7-8------------------|
G:|-3/4-4-5-4-----|---------------------7-|------------------------------------|
D:|-----------5-5-|-----------------------|------------------------------------|
A:|---------------|-----------------------|------------------------------------|
E:|---------------|-----------------------|------------------------------------|
...


Ваше мнение



Капча

Рекомендуем