t. See http://www.olga.net/faq/ for more information. #
Date: Mon, 18 Mar 1996 07:56:19 -0300
From: Vengeance
Subject: r/raimundos/kombao.tab
RAIMUNDOS
---------
Pitando no kombao, do album Lavo Ta Novo
tabbed by vengeance ([email protected])
x - palm mute
Intro
e|-----------------------------------------------------------------
B|-----------------------------------------------------------------
G|---------------------------4-------------------------------------
D|-x-x-x-x-4-----------------4-------------------------------------
A|-x-x-x-x-4-----------------2-------------------------------------
E|-x-x-x-x-2-------------------------------------------------------
Riff 1
e|-----------------------------------------------------------------
B|-----------------------------------------------------------------
G|-----------------4--4-4------------------------------------------
D|-4--7-7--4--7-7--4--4-4--4--7-7----------------------------------
A|-4--7-7--4--7-7--2--2-2--4--7-7----------------------------------
E|-2--5-5--2--5-5----------2--5-5----------------------------------
Riff 2
e|-----------------------------------------------------------------
B|-----------------------------------------------------------------
G|-----------------7--7-7--4--4-4--9-------------------------------
D|-4--7-7--4--7-7--7--7-7--4--4-4--9-------------------------------
A|-4--7-7--4--7-7--5--5-5--2--2-2--7-------------------------------
E|-2--5-5--2--5-5--------------------------------------------------
Riff 3
e|-----------------------------------------------------------------
B|-----------------------------------------------------------------
G|-----------------------------------------------------------------
D|---7-----------------------4-------------------------------------
A|---7-----------------------4-------------------------------------
E|---5-----------------------2-------------------------------------
Riff 4
e|-------------------------------------------------------------------
B|-------------------------------------------------------------------
G|------------------6-----------------------------6---------------9--
D|--4---------------6--------------4--------------6---------------9--
A|--4---------------4--------------4--------------4---------------7--
E|--2------------------------------2---------------------------------
Solo
e|----------9------------------------9-------9----------------9--------------
B|-10---12------------------10---12-----12------12---10---12-----------------
G|-------------11---9--11----------------------------------------11---9--11--
D|---------------------------------------------------------------------------
A|---------------------------------------------------------------------------
E|---------------------------------------------------------------------------
e|--------------9--
B|-10---10--12-----
G|-----------------
D|-----------------
A|-----------------
E|-----------------

Intro
verse1
Riff 1
verse2
Riff 2
Rolava ....
Riff 3
De noite ....
Riff 4
Pelas .....
Riff 3
Como ....
Riff 4
Solo (guitarra base toca o Riff 3)


Ваше мнение



Капча

Рекомендуем