Por: Damian ([email protected])

En esta cancion, la guitarra se afina en:

1) C#
2) G#
3) E
4) B
5) F#
6) B

Clave:
( ): наrmуniсо
h: hammer on
p: pull off
p.m.: palm mute

C#|---------------------------|
G#|---------------------------|
E |---------------------------|
B |-2(2)(2)(2)--2(2)-2(2)-2-2-| x4
F#|-2(2)(2)(2)--2(2)-2(2)-2-2-|
B |-2(2)(2)(2)--2(2)-2(2)-2-2-|

C#|---------------------------|
G#|---------------------------|
E |---------------------------|
B |-2(2)(2)(2)--2(2)-2(2)-2-2-| x4
F#|-2(2)(2)(2)--2(2)-2(2)-2-2-|
B |-2(2)(2)(2)--2(2)-2(2)-2-2-|
“Quiero tocarte”…

C#|---------------|
G#|---------------|
E |---------------|
B |-0-0-8-0-7-0-3-| x4
F#|-0-0-8-0-7-0-3-|
B |-0-0-8-0-7-0-3-|
“No puedes”...

C#|-----8---7------|
G#|--------------8-|
E |-5-5---5---5----|
B |----------------| x4
F#|----------------|
B |----------------|
“No puedes”...

C#|---------------------|
G#|---------------------|
E |---------------------|
B |-2h3p2-2--2h3p2-2--0-| x4
F#|-2h3p2-2--2h3p2-2--0-|
B |-2h3p2-2--2h3p2-2--0-|

C#|---------------------------|
G#|---------------------------|
E |---------------------------|
B |-2(2)(2)(2)--2(2)-2(2)-2-2-| x4
F#|-2(2)(2)(2)--2(2)-2(2)-2-2-|
B |-2(2)(2)(2)--2(2)-2(2)-2-2-|
“Quieres tocarme”...

C#|---------------|
G#|---------------|
E |---------------|
B |-0-0-8-0-7-0-3-| x4
F#|-0-0-8-0-7-0-3-|
B |-0-0-8-0-7-0-3-|
“No puedes”...

C#|-----8---7------|
G#|-5-5---5---5--8-|
E |----------------|
B |----------------| x4
F#|----------------|
B |----------------|
“No puedes decifrar”...

C#|------8--7-------|
G#|------------8----|
E |-----------------|
B |-7-7----------3--| x4
F#|-7-7----------3--|
B |-7-7----------3--|
“No puedes verme”

C#|---------------------|
G#|---------------------|
E |---------------------|
B |-2h3p2-2--2h3p2-2--0-| x4
F#|-2h3p2-2--2h3p2-2--0-|
B |-2h3p2-2--2h3p2-2--0-|

C#|---------------------------|
G#|---------------------------|
E |---------------------------|
B |-2(2)(2)(2)--2(2)-2(2)-2-2-| x4
F#|-2(2)(2)(2)--2(2)-2(2)-2-2-|
B |-2(2)(2)(2)--2(2)-2(2)-2-2-|

C#|---------------|
G#|---------------|
E |---------------|
B |-0-0-8-0-7-0-3-| x4
F#|-0-0-8-0-7-0-3-|
B |-0-0-8-0-7-0-3-|
“No puedes verme”..

C#|-----8---7------|
G#|-5-5---5---5--8-|
E |----------------|
B |----------------| x6
F#|----------------|
B |----------------|
“No puedes decifrar”...

C#|------8--7-------|
G#|------------8----|
E |-----------------|
B |-7-7----------3--| x4
F#|-7-7----------3--|
B |-7-7----------3--|
“No puedes verme”



Ваше мнение



Капча

Рекомендуем