Primal Scream - Kowalski bass tab
from the 'Vanishing Point' album.
Transcribed by Josh Skudder, [email protected]
Didn't bother much with timing. Corrections, etc. welcome.
main riff. just play around with variations on this for most of the song.
G|--------------------|
D|--------------------|
A|--------------------|
E|-333331-33-3333-111-|
occasional fill
G|--------------------|
D|--------------------|
A|--------------------|
E|-333-133-13-6665-4--|
the higher version
G|--------------------|
D|-55555355---55353-3-|
A|-----------------5--|
E|--------------------|
bridge (or whatever you call it).
G|----------------------------------|
D|----------------------------------|
A|-----------------------33-33--353-|
E|-33-33-55-55-5-3566-66-------6----|
^unsure 'bout this note.
muffled bit (1:54)
G|----------------------------------|
D|--------------------------------3-|
A|--------------------------3--5----|
E|-13-13--13-13--13-13--36-3--3--3--|


Ваше мнение



Капча

Рекомендуем