Song: Burning Wheel
Band: Primal Scream
Album: Vanishing Point
Bassist: Marco Nelson
Comments: Really smooth bass groove for this druggy dance
number by the Scream. I'm just going to write out all the
parts to the song and let you take it from there. I'm not
a 100% sure about the root notes but it works pretty well
play around with them a bit like Nelson does. There are a
parts I've left out that shouldn't be to hard to pick up.
Intro
G*9-9-9-9-9-9-9-7h*9-9-9-9-9-9-9-9-*
D*----------------*----------------*
A*----------------*----------------*
E*----------------*----------------*
G*----9-----7h9p7-*
D*------7h9-------*
A*7-7-------------*
E*----------------*

Verse
G*9-9-9-9-9-9-9-9-*
D*----------------*
A*----------------*
E*----------------*
G*----------------*
D*----------------*
A*----------------*
E*7-7-7-7-7-7-7-7-*
G*----------------*
D*----------------*
A*----------------*
E*5-5-5-5-5-5-5-5-*
G*----------------*
D*----------------*
A*----------------*
E*3-3-3-3-3-3-3-3-*
Outro
G*----------------*
D*----9-----7h9p7-*
A*------7h9-------*
E*7-7-------------*
Steven Snider
[email protected]




Ваше мнение



Капча

Рекомендуем