Date: Thu, 06 Nov 1997 04:08:31 +0800
From: Aaron Gan
To: [email protected]
Subject: Tabs
Heaven Knows
By: Rick Price
From the album "Heaven Knows"
Transcribed by: Aaron Gan
Intro:
Cadd9 Csus2 Cadd9 Am7/G
|---3----3------0-----1--0---------------------3-----------------------|
|---3------3----1-----1----1------------3------3---------1-------------|
|---5--5--------0--0--0------0----------5----5-----------0-------------|
|---5--------------------------------------5-----------0---------------|
|---3-----------3-----------------------3------------------------------|
|---3------------------------------------------------3-----------------|
Verse:
Cadd9 Csus2 G G/F Em7
|----------3----------1---------3----------3----------3----------------|
|---3------3----------1---------3----------3----------3--------0-------|
|---0----0----------0-----------0----------0--------0--------0---------|
|------2----------3-----------0----------0--------2--------2-----------|
|---3-----------3------------------------------------------------------|
|---------------------------3------3---1--------0----------------------|
She's always on my mind
From the time I wake up
Till I close my eyes
She is everywhere I go
Am Am7/G Csus2 Am7/G
|------------------------------3---------------------------------------|
|---1------1---1------1--------3------------1--------------------------|
|---2----2-----0----0--------0--------------0--------------------------|
|------2----------2--------3-------------0-----------------------------|
|---0--------------------3---------------------------------------------|
|--------------3----------------------3--------------------------------|
She's all I know
Cadd9 Csus2 G G/F Em7
|----------3----------1---------3----------3----------3----------------|
|---3------3----------1---------3----------3----------3--------0-------|
|---0----0----------0-----------0----------0--------0--------0---------|
|------2----------3-----------0----------0--------2--------2-----------|
|---3-----------3------------------------------------------------------|
|---------------------------3------3---1--------0----------------------|
And though she's so far away
It just keeps gettin stronger everyday
And even though she's gone
Am Am7/G Csus2
|------------------------------3---------------------------------------|
|---1------1---1------1--------3---------------------------------------|
|---2----2-----0----0--------0----0------------------------------------|
|------2----------2--------3--------3----------------------------------|
|---0--------------------3---------------------------------------------|
|--------------3-------------------------------------------------------|
I'm still holdin on
Pre-chorus:
Am Am7/G Csus2
|--------------------------------------------------3-------------------|
|----1-------1------1--1-------1------1------------3-------------------|
|----2----2--2----2----0----0--0----0-----------0-----0-----0----------|
|-------2-------2---------2-------2----------3-----------3-------------|
|----0-------0----------------------------3----------------------------|
|----------------------3-------3---------------------------------------|
So tell me where do I start
Coz it's breakin my heart
G#msus2 Fsus
|---4-----4--------1-----1---------------------------------------------|
|---4-----4--------1-----1---------------------------------------------|
|------------------3---------------------------------------------------|
|------6--------------3------------------------------------------------|
|---6--------6-----1--------1------------------------------------------|
|----------------------------------------------------------------------|
Don't want to let her go
Chorus:
|---3---------3---------------------1----------------------------------|
|---3---------3--------------1------1--------1---0-------0-------------|
|---0------0--------0--------0---------0-----0-------2-----------------|
|-------2--------2-----0---------3-------------------------------------|
|---3---------3--------------3-----------------------------------------|
|--------------------------------------------3-------------------------|
Maybe my love will come back some day
|---3---------3---------------------1----------------------------------|
|---3---------3--------------1------1--------1---0-------0-------------|
|---0------0--------0--------0---------0-----0-------2-----------------|
|-------2--------2-----0---------3-------------------------------------|
|---3---------3--------------3-----------------------------------------|
|--------------------------------------------3-------------------------|
Only heaven knows
|---3---------3---------------------1----------------------------------|
|---3---------3--------------1------1--------1---0-------0-------------|
|---0------0--------0--------0---------0-----0-------2-----------------|
|-------2--------2-----0---------3-------------------------------------|
|---3---------3--------------3-----------------------------------------|
|--------------------------------------------3-------------------------|
Maybe our hearts will find their way
|---3---------3---------------------1----------------------------------|
|---3---------3--------------1------1--------1---0-------0-------------|
|---0------0--------0--------0---------0-----0-------2-----------------|
|-------2--------2-----0---------3-------------------------------------|
|---3---------3--------------3-----------------------------------------|
|--------------------------------------------3-------------------------|
Only heaven knows
|------------0----------------------------1---------------0------------|
|---1--------1---------1---------------1-----1------------1------------|
|---2-----2--2------2---------------3-----------3---------0------------|
|------2---------2---------------3-----------------3------0------------|
|---0--------0----------------1---------------------------2------------|
|---------------------------------------------------------3------------|
And all I can do is hope and pray coz heaven knows

Cadd9 Csus2 G G/F Em7
|----------3----------1---------3----------3----------3----------------|
|---3------3----------1---------3----------3----------3--------0-------|
|---0----0----------0-----------0----------0--------0--------0---------|
|------2----------3-----------0----------0--------2--------2-----------|
|---3-----------3------------------------------------------------------|
|---------------------------3------3---1--------0----------------------|
My friends keep telling me
If you really love her
You've gotta set her free
And if she returns in kind
Am Am7/G Csus2
|------------------------------3---------------------------------------|
|---1------1---1------1--------3---------------------------------------|
|---2----2-----0----0--------0----0------------------------------------|
|------2----------2--------3--------3----------------------------------|
|---0--------------------3---------------------------------------------|
|--------------3-------------------------------------------------------|
I know she's mine

Bridge:
(pluck in similar fashion)
Am Am7/G
Why I live in dispair
Csus2
Coz wide awake or dreaming
G
I know she's never there
Am
But all the time I act so brave
Am7/G
I'm shaking inside
Csus2 G#msus2 Fsus
Why does it hurt me so?

Outro:
Cadd9 Csus2 Cadd9 Am7/G
|---3----3------0-----1--0---------------------3-----------------------|
|---3------3----1-----1----1------------3------3---------1-------------|
|---5--5--------0--0--0------0----------5----5-----------0-------------|
|---5--------------------------------------5-----------0---------------|
|---3-----------3-----------------------3------------------------------|
|---3------------------------------------------------3-----------------|
Heaven knows... Heaven knows..
Cadd9
|---------------3--------3----8----------------------------------------|
|------------3-----3----------8----------------------------------------|
|---------5-----------5-------9----------------------------------------|
|------5----------------------10---------------------------------------|
|---3-------------------------10---------------------------------------|
|-----------------------------8----------------------------------------|

This took up a lot of my time to do, I hope you enjoy it!
Feel free to send me any comments or any suggestions!


Ваше мнение



Капча

Рекомендуем