#----------------------------------PLEASE NOTE--------------------------------#
#This file is the author's own work and represents their interpretation of the#
#song. You may only use this file for private study, scholarship, or research.#
#-----------------------------------------------------------------------------#
Author/Artist: Portishead
Title: Mysterons
Album: NYC Live
Transcribed by: Onur Cakir
Email: [email protected]
I hope you enjoy it....
h - hammer on
p - pull off
b - bend string up
r - release bend
/ - slide up
- slide down
v - vibrato (sometimes written as ~)
t - right hand tap
x - play 'note' with heavy damping
Standart Tuning
(EADGBe)
e|--------------------------------------------------------------------------|-
B|--------------------------------------------------------------------------|-
G|-------10---------11------------------------------------------------------|-
A|-----8----------9---------------------------------------------------------|-
D|---8----------9-----------------------------------------------------------|-
E|-6----------7-------------------------------------------------------------|-
RIFF 1
e|--------------------------------------------------------------------------|-
B|---------6-7-6-7----------------------------6-7-6-7-----------------------|-
G|-------8---------8------------------------8---------8---------------------|-
A|-----8---------------8-9-8h9p8----------8---------------8-9-8h9p8h9p8-----|-
D|---6---------------6-----------9p7----6---------------6-------------------|-
E|--------------------------------------------------------------------------|-
RIFF 2
That's all !!!



Ваше мнение



Капча

Рекомендуем