#-----------------------------------------------------------------------------#
#-- File created with Instab - http://www.pconline.com/~smcarey/instab.html --#
#-----------------------------------------------------------------------------#
Author/Artist: Plankeye
Title: Open House
Album: The Spark
Transcribed by: Jed
Email: [email protected]
This is the bass tab, so ignore the top 2 strings. Enjoy!
Visit my webpage at http://members.tripod.com/~CokeMan007/index.html
-----------------|-----------------|-----------------|-----------------|------|
-----------------|-----------------|-----------------|-----------------|------|
-----------------|-----------------|-----------------|-----------------|------|
-----------------|-----------------|-----------------|-----------------|-4x---|
-9-9-9-9-9-7---5-|---5-5-5-5-5-5-5-|---------------7-|---7-7-7-7-7-7-7-|------|
-----------------|-----------------|-5-5-5-5-5-5-5---|-----------------|------|
Intro(above)/Verse(below)
-----------------|-----------------|-----------------|-----------------|------|
-----------------|-----------------|-----------------|-----------------|------|
-----------------|-----------------|-----------------|-----------------|------|
----------7------|-------7-7-7-----|-----------------|-----------------|-4x---|
-9-------------5-|-----------------|-----------5-6-7-|-----------------|------|
-----------------|-----------------|-5---------------|-----------------|------|
Chorus(below)
-----------------|-----------------|-----------------|-----------------|------|
-----------------|-----------------|-----------------|-----------------|------|
-----------------|-----------------|-----------------|-----------------|------|
-----------------|-----------------|-----------------|-----------------|-2x---|
-9-9-9-9-9-7---5-|---5-5-5-5-5-5-5-|---------------7-|---7-7-7-7-7-7-7-|------|
-----------------|-----------------|-5-5-5-5-5-5-5---|-----------------|------|
-----------------|-----------------|------------------------------------------|
-----------------|-----------------|------------------------------------------|
-----------------|-----------------|------------------------------------------|
-----------------|-----------------|------------------------------------------|
-----------------|-----------------|------------------------------------------|
-7-7-7-7-7-7-7-7-|-7-7-7-7-7-7-7-7-|------------------------------------------|
-----------------|-----------------|--------------|------------|--------------|
-----------------|-----------------|--------------|------------|--------------|
-----------------|-----------------|--------------|------------|--------------|
-----------------|-----------------|----9-----7---|-6----------|-4x-----------|
-5-------------9-|---------------7-|--------------|-------9----|--------------|
-----------------|-----------------|--------------|------------|--------------|
Intro/Verse(no bass)/Chorus/Middle Section(below)
-----------------|-----------------|-----------------|----------------|-------|
-----------------|-----------------|-----------------|----------------|-------|
-----------------|-----------------|-----------------|----------------|-------|
-----------------|-----------------|-----------------|----------------|-4x----|
-5-5-5-5-5-5-----|---9-9-9-9-9-----|-7-7-7-7-7-7-----|---7-7-7-7-7----|-------|
-----------------|-----------------|-----------------|----------------|-------|
Outro(free time)
---------------------------------------------------|--------------------------|
---------------------------------------------------|--------------------------|
---------------------------------------------------|--------------------------|
---------------------------------------------------|--------------------------|
-5--------------9-------------7--------------------|-2x-----------------------|
---------------------------------------------------|--------------------------|


Ваше мнение



Капча

Рекомендуем