Part 1 (Play chords of F and A# alternatively underneath)
F -7-7-7-7-7-7-7-7-7-7-7-7-7-7-7-7----------
C -0-0-0-0-0-0-0-0-0-0-0-0-0-0-0-0----------
G# ------------------------------------------
D# ------------------------------------------
A# ------------------------------------------
F ------------------------------------------
Part 2:
C ------11--------------9-----------------
C ----------12---------------7--9---------
G# ----9-----------9-----------------------
D# ----------------------------------------
A# -7-----------------7--------------------
F ----------------------------------------
Part 3 (F and A# underneath as well)
C ------------------------------------------
C ------------------------------------------
G# ------------------------------------------
D# ------------------------------------------
A# --7---7-6-----11-14-----9--11-------------
F ------------------------------------------
Next bit:
C -------------------------------------------------------------------
C -------------------------------------------------------------------
G# -------------------------------------------------------------------
D# -6-6-6-6-6-6-6-6-6-6-6-6-6-6-6-6-7-7-7-7-7-7-7-7-7-7-7-7-7-6-6-6---
A# -7-7-7-7-7-7-7-7-7-7-7-7-7-7-7-7-0-0-0-0-0-0-0-0-0-0-0-0-0-0-0-0---
F -0-0-0-0-0-0-0-0-0-0-0-0-0-0-0-0-----------------------------------
Followed by the underpinning of chords C/F and A#


Ваше мнение



Капча

Рекомендуем