tabbed by: deadbunnies
e-mail: [email protected]

i think this is about right. if it isn't, then it's not. i'm a beginner.

standard tuning

E ---------------------------------
B ---------------------------------
G ---------------------------------
D -7--9-7--6--7-6--4--6-4--2-------
A ---------------------------------
E ---------------------------------

E ---------------------------------
B ---------------------------------
G ---------------------------------
D -2/7--9-7--6--7-6--4--6-4--2-----
A ---------------------------------
E ---------------------------------

E ----------------------------------------------------
B ----------------------------------------------------
G -----------7-7-6------------------------------------
D -2/7-7-9-9-------9--7--9-7--6--7-6--4--6-4--2-------
A ----------------------------------------------------
E ----------------------------------------------------


Ваше мнение



Капча

Рекомендуем