Song: I Love God (bass)
Artist: OC Supertones
Album: Adventures of the OC Supertones
(c)1996 Tooth & Nail Records
Tabbed By: David Kruger email: [email protected]

This is my first time writing tab. I do not guarantee that this is perfect, but
it sounds really close. Email me with comments or complaints!
********************************************************************Intro:
G|----------------------------------------|
D|---------------------------------5-7----|
A|-7-7---7-7-7-7---7-7---7-7-5-7-------0--|
E|----------------------------------------|

********************************************************************
Verse part 1: (3x)
G|-----------------------|
D|-----------------------|
A|--4-5-7-77-------------|
E|-------------0-3-4-5---|

(1x)
G|----------------------|
D|----------------------|
A|--4-5-7-77------------|
E|-------------0-3-4----|

********************************************************************
Chorus 1: (4x){a}{b} 2nd time through play {a}3x then {b} once
G|------------------------------|-------------------------|
D|------------------------------|-----------------5-6-----|
A|-------------5---5-7-5-7------|-------------5-7---------|
E|-2---2-2----------------------|-2---2-2-----------------|

********************************************************************
Chorus 2 (bass solo) (3x)
G|-----6-6-7-7-9-9-----------------------|
D|-7-7-----------------9-9-7-7-6---------|
A|-----------------7-7-------------------|
E|---------------------------------------|

(1x)
G|------6-6-7-7-9---9-7-6------------|
D|-7-7--------------------9-7--------|
A|-----------------------------------|
E|-----------------------------------|

********************************************************************
After the distortion starts, it is mostly roots of the chords.

Intro

Verse 1

Chorus 1

Chorus 2 (bass solo)

back to Verse 1........you get the idea


Ваше мнение



Капча

Рекомендуем