breaking point - rvd
nathan miller ([email protected])
RVD Tab
Part 1
E-----------------------------------------------------------------------------------------------------
B-----------------------------------------------------------------------------------------------------
G-----------------------------------------------------------------------------------------------------
D-----------------------------------------------------------------------------------------------------
A-----------------------------------------------------------------------------------------------------
D-----00000000000000000000---------------------------------------------------------------------
Part 2
E-----------------------------------------------------------------------------------------------------
B-----------------------------------------------------------------------------------------------------
G-----------------------------------------------------------------------------------------------------
D---------1----0-0---1-1---2/-----------------------------------------------------------------------
A---------1----0-0---1-1---2/-----------------------------------------------------------------------
D---------1----0-0---1-1---2/-----------------------------------------------------------------------
This part is close but not 100%
Part 3
E-----------------------------------------------------------------------------------------------------
B-----------------------------------------------------------------------------------------------------
G-----------------------------------------------------------------------------------------------------
D----------1--1--1/--4--4/--1/--4--4/--1/--4--3--2-----------------------------------------------
A----------1--1--1/--4--4/--1/--4--4/--1/--4--3--2-------------------------------------------------
D----------1--1--1/--4--4/--1/--4--4/--1/--4--3--2-------------------------------------------------
Strum it up and down to get the right affect
Part 4
E-----------------------------------------------------------------------------------------------------
B-----------------------------------------------------------------------------------------------------
G-----------------------------------------------------------------------------------------------------
D----------1--1--1/--4--4/--1/--4--4/--1/---3--2----------------------------------------------------
A----------1--1--1/--4--4/--1/--4--4/--1/---3--2----------------------------------------------------
D----------1--1--1/--4--4/--1/--4--4/--1/---3--2----------------------------------------------------
Part 5
E-------------------------------------------------------------------------------------------------------
B-------------------------------------------------------------------------------------------------------
G-------------------------------------------------------------------------------------------------------
D---------1----------------------------------------------------------------------------------------------
A---------1----------------------------------------------------------------------------------------------
D---------1----------------------------------------------------------------------------------------------
There is a little bit more in this part but I don’t know it yet.
Part 6
E-------------------------------------------------------------------------------------------------------
B-------------------------------------------------------------------------------------------------------
G-------------------------------------------------------------------------------------------------------
D---------1-1-1/---7--7--7--5--5--5--3--3--3------------------------------------------------------
A---------1-1-1/---7--7--7--5--5--5--3--3--3------------------------------------------------------
D---------1-1-1/---7--7--7--5--5--5--3--3--3------------------------------------------------------
This part is not correct
This is the order of how the song goes….
Part 1 x1
Part 2 x1
Part 3 x2
Part 4 x1
Part 3 x1
Part 5 x1
Part 6 x4
Part 5 x1
Part 3 x2
Part 4 x1
Part 3 x1
Part 5 x1
Part 6 x4
Part 5 x1
Part 3 x2
Part 4 x1
Part 3 x1
Part 5 x1
If u want it to sound really cool like breaking points version
then tune to c,g#,c,g,b,e this version sounds a lot better than
the others. This is as close as I can get of this song so if you
have got better than email it to me at [email protected]


Ваше мнение



Капча

Рекомендуем