Author/Artist: WWF
Title: New Age Outlaws
Album: WWF Themes 3
Transcribed by: Jeremy McCully (http://)
Email: [email protected]
Tuning: EADGBe (normal)
x = scratch/muted string
= slide down
-------------------------------------|----------------------------------------
-------------------------------------|----------------------------------------
-------------------------------------|----------------------------------------
-2-2--------2------------------------|----------------------------------------
-2-2--------2------------------------|1/18------------------------------------
-0-0--3~~~--0------------------------|----------------------------------------
Intro - play a couple times then
------------------------------------------------------------------------------
------------------------------------------------------------------------------
------------------------------------------------------------------------------
-2-2--------2--x--------------------------------------------------------------
-2-2--------2--x--------------------------------------------------------------
-0-0--3~~~--0--x--------------------------------------------------------------
Play after slide a couple times
------------------------------------------------------------------------------
------------------------------------------------------------------------------
-5----------------------------------------------------------------------------
-5--5---2---------------------------------------------------------------------
-3--5---2---------------------------------------------------------------------
----3---0---------------------------------------------------------------------
Play a couple times
That's it I think except for the dual guitar riff which I haven't figured
out yet. If anyone knows how to play it please e-mail me at
[email protected]


Ваше мнение



Капча

Рекомендуем