E-------------------------------------------------------------------------
B-------------------------------------------------------------------------
G-------------------------------------------------------------------------
D-------------------------------------------------------------------------
A-------------------------------------------------------------------------
E-----44444444 5555555 00000000777777-----------------------------------
------------------------------------------------------------------
------------------------------------------------------------------
------------------------------------------------------------------
------------------------------------------------------------------
---22 00-------------------------223-------0 rep 3---------------
-------------3303----rep 3-------------3--------------------------
WRESTLING THEMES
===================================
WWF THEME SONG TABS
TABBED BY :MATTHEW MAYNE
===================================
HHH ITS OUR TIME
JARRET
BLUE MEANIE
MONEY INC MILLION DOLLER MAN TED DIBIASE
NATION
SHAMROCK
SUPER STARS
RAW IS WAR
KEINTIE TAKA + FUNAKI LARGE VERSION
TORI
X-PAC
AMERICAN BAD ASS
IF YOU HAVE ANY REQUESTS FOR WWF TABS PLEASE EMAIL ME!

===================================
e--12-14-14-14-12----12-14-14-14------|
B-------------------------------------|
G-------------------------------------|
D--2-------------------------------2--|
A--2-------------------------------2--|
E--0-------------------------------0--|
pm ...... ....... .....
E-----------------------------|
B-----------------------------|
G-----------------------------|
D--2-------2---------2-------2|
A--2-------2---------2-------2|
E--0-0-0-0-0-0-0-0-0-0-0-0-0-0|
.. ..
E---------------------------------|
B---------------------------------|
G-------------------------5---4-4-|
D-------------------------3-/-2-2-|
A--2------5---4-4---2-------------|
E--0--0-0-3-/-2-2---0--0-0--------|
pm .........................
E--------------------------|
B--------------------------|
G--------------------------|
D--2-2---2-2---2-2---2-2---|
A--2-2---2-2---2-2---2-2---|
E--0-0---0-0---0-0---0-0---|
E---------------------------------||------14-15-14--|
B---------------------------------||---15-----------|reapeat
G---------------------------------||----------------|
D--2-2-----5--7-------2-2-----5--7||----------------|
A--2-2-----5--7-------2-2-----5--7||----------------|
E--0-0-----3--5-------0-0-----3--5||----------------|
JARRET
E-----------------------------|-----------------3---------3//--|
B-----------------------------|---------------3---3-5---3-------|
G----------------5-3----------|--------3--------------4---------|
D-(5)//////-----5-3--3-5-|----3-5---5//-------------------|
A--5---------------------5----|--5------------------------------|
E--3--------------------------|---------------------------------|
E--3----------------|-----------------|--6-3----------||
B----6-3------3//--|--3-3-------3-3--|------6-3------||
G--------3535-------|--3-3--3535-3-3--|----------5-3--||
D-------------------|--3-3-------3-3--|---------------||
A-------------------|-----------------|---------------||
E-------------------|-----------------|---------------||
BLUE MEANIE
E----------------------------------------------|
B----------------------------------------------|
G---------x-x--------x-x--7-7-7--x-x-x--7-7-7--|
D--4-4-4--x-x-7-7-7--x-x--7-7-7--x-x-x--7-7-7--|
A--4-4-4--x-x-7-7-7--x-x--5-5-5--x-x-x--5-5-5--|
E--2-2-2------5-5-5----------------------------|
MONEY INC THEME
G1
E----------------17-----------------|
B----------------17-----------------|
G----------------14-----------7--5--|
D--5--7--7--5--7---5--7--7--x-7--5--|
A--5--7--7--5--7---5--7--7--x-5--3--|
E--3--5--5--3--5---3--5--5----------|
G2 EFFECTD
.........
E-----------------5--|
B-----------------5--|
G-------------2---2--|
D-------------2---2--|
A--0--0--0--0-0------|
E--------------------|
NATION
E----------------|--------|
B----------------|--------|
G----------------|--------|
D----------------|--------|
A---7-5-7--------|--------|
E-----------6--2-|--0--2--|
SHAMROCK
Eb-----------------|
Bb-----------------|
Gb-----------------|
Db--2--4---4---4---|
Ab--2--4---4---4---|
Eb--0--2---2-0-2---|
Eb-----------------------------------------|
Bb-----------------------------------------|
Gb-----------------------------------2-----|
Db----4-4-4-4-4-2-2------4-4-4-4-----2-2---|
Ab----4-4-4-4-4-2-2------4-4-4-4-----0-2---|
Eb--0-2-0-2-0-2-0-0----0-2-0-2-0-2-2-5-0---|
Eb------------------------------------------|
Bb------------------565---------------3-----|
Gb----4-4-4-4-4-2-2-------4-4-4-4-----2-2---|
Db----4-4-4-4-4-2-2-------4-4-4-4-----0-2---|
Ab--0-2-0-2-0-2-0-0-----0-2-0-2-0-2-2---0---|
Eb------------------------------------------|
Eb--------5-------5-|---------5----------5--|
Bb--------5-------5-|---------5----------5--|
Gb----5-------5-----|-----------------------|
Db--7---7---7---7---|-----------------------|
Ab------------------|----3-----------3------|
Eb------------------|--5---5-------5---5----|
superstars
E-------------------------------------------|
B-------------------------------------------|
G-------------------------------------------|
D--(2)--------------------------------------|
A--(2)--------------7--5--4--2--------------|
E--(0)-----0-1------5--3--2--0--1-0-1-0-1-0-|
raw is raw pm........................
E------------------------------|-----------------------------|
B------------------------------|-----------------------------|
G------------------------------|-----------------------------|
D------------------------------|--2--2--2--2--2--2--2--2--2--|
A--2-2-3-2-2-3-2-2-3-5-5-5-----|--0--0--0--0--0--0--0--0--0--|
E--0-0-1-0-0-1-0-0-1-3-3-3-----|-----------------------------|
E------------------------|
B------------------------|
G-2--2----------------2--|
D-2--2----------------2--|
A-0--0--0-2-3-2-3-2-0-0--|
E------------------------|
KEINTIE
G1(JAP GUITAR)
E------------------------------------------------------------------||
B------------------------------------------------------------------||
G----4-4---4-4---4-4---4-4---444-----5-5----5-5----5-5----5-8-6-5--||
D------------------------------------------------------------------||
A--7-----7-----7-----7-----7-------8-----8------8------8-----------||
E------------------------------------------------------------------||
G2:ENTERS SECOND TIME (FIRST TIME ONLY)
LET RING.......................... .............................
E-------------------------------------------------------------------||
B-------------------------------------------------------------------||
G-------------------------------------------------------------------||
D--2--------------------------------3-------------------------------||
A--2--------------------------------3-------------------------------||
E--0--------------------------------1-------------------------------||
G2:2ND TIME
E--------------------------------------------------------------------||
B--------------------------------------------------------------------||
G--------------------------------------------------------------------||
D--------------------------------------------------------------------||
A----2-2---2-2---2-2---2-2-2--------3-3---3-3---3-3----3-3-----------||
E--0-----0-----0-----0------------1-----1-----1------1---------------||
BOTH GUITARS
E----------------------------|
B---9-9--10-10-12-12--10-10--|
G---9-9--10-10-12-12--10-10--|
D---9-9--10-10-12-12--10-10--|
A---7-7--8--8--10-10--8--8---|
E----------------------------|
E----------------------------------------|
B--7--5--7-7-5---------------------------|
G--7--5--7-7-5---------------------------|
D--7--5--7-7-5---------------------------|
A----------------3-1-------------------3-|
E-------------------3-1-1--1-1-0-1-0-1---|
hm .................................
E--4--------------||---------------3--6--8--10//--|
B----6-4-2---2--4-||-------------3------------------|
G----------4------||--7//--5-4--------------------|
D-----------------||--------------------------------| x4
A-----------------||--------------------------------|x2
E-----------------||--------------------------------|
E----------------------------------------------------------------------------
B----------------------------------------------------------------------------
G----------------------------------------------------------------------------
D--------9-------9-------9-------9---------7-7- . / ------------ . /
A------5/7-----5/7-----5/7-----5/7---------7-7- / . -0-3-1-0---- /
E--0-0-----0-0-----0-0-----0-0-----0-0----/5-5-----------------1--------1-0-1
E-------------------------|
B-------------------------|
G-------------------------|
D----------------9-----9--|
A--2-3-5---------7-----7--|
E----------0-0-0-0-0-0-0--|
solo whammy ::solo is very ruff translation not 100% right...............
E--19^////------------------------------------------1-4-3-1--1-|
B--------------5///--5-3---3-----------------1-3---1---------4--|
G--------------------------5--5-5--------1--------3--------------|
D-----------------------------------1-------3-3-------------------|
A-------------------------------------3-3-------------------------|
E-----------------------------------------------------------------|
E----------3-6-3-3/9--8-10-10-8-11^--12-10---------12-10-8-x4----------|
B--3^-//----------------------------------12-12^-------------12-10-8x4|
G----------------------------------------------------------------------|
D----------------------------------------------------------------------|
A----------------------------------------------------------------------|
E----------------------------------------------------------------------|
E-----------------------------------------------------------------------|
B-------------------------------------1-4-5-----------------------------|
G--7-5-4--4-5-4-------------------1-3-------5---------------------------|
D-------------------------------13--------------------------------------|
A---------------------------1-3----------------/--/--/--/7/8/7/8/7------|ad
E----------------------1//---------------------------------------------|
t po t t hm
E--12-10-8-x8-|-11-8-12-8------------------9^-10^-12^-15--21^------------|chi
B-------------|-----------------------------------------------21---------|the
G-------------|------------9^-7-6--6-7-9-------------------------12-20^/|i
D-------------|-------------------7--------------------------------------|stu
A-------------|----------------------------------------------------------|wor
E-------------|----------------------------------------------------------|out
ending
e--------------------------22^--22/23^//---|
b------------------15--22^-------------------|
g----14^16^-19^-21---------------------------|
D-2--2--4--7--9--14--16--19--21///-----------|
A-2--0--2--5--7--12--14--17--19///-----------|
E-0--------------------------0---------------|
TORI
E-------------------------|
B-------------------------|
G--------------3-3--------|
D--------------3-3---3-3--|
A--5-5---3-5---1-1---3-3--|
E--3-3---3-3---------1-1--|
E--------------------------------|------3-6----3-6--|ad lib solo over this
B--------------------------------|--3-6-----3-6-----|
G--3---------------------3///--|------------------|
D----5-3-5-3---3-5-5-5-5---------|------------------|
A------------5-------------------|------------------|
E--------------------------------|------------------|
X PAC
downed with whammy
Eb------------|
Bb------------|
Gb------------|
Db-----------|
Ab-----------|
Eb---0-------|
bass
Eb-----------|
Bb-----------|
Gb-----------| |-------------|
Db--7-/-9-9--| |-----p----h--|
Ab--5-/-7-7--|x4 |----9-7--7-9-|
Eb------0-0--| |--0----------|
Eb-----------------------------------|--------|
Bb-----------------------------------|--------|
Gb---------7-----7/9-9-9-9-------7---|--------|
Db---------7-----7/9-9-9-9-------7---|--2--2--|reapeat
Ab---------5-----5/7-7-7-7-------5---|--2--2--|
Eb--0-0-0----0-0-----------0-0-0-----|--0--0--|
chorus
bass
Gb-----------------|
Db-----------------|
Ab----7-5-7-2-3----|
Eb--0-----------2--|
Eb--------------------|
Bb--------------------|
Gb--------------------|
Db--2--------------2--|
Ab--2--------------2--|
Eb--0--------------0--|
..
Eb---------------|
Bb---------------|
Gb---------------|
Db--2-2----h-----|
Ab--2-2---4-5----|x a couple
Eb--0-0--------0-|
AMERICAN BAD ASS-UNDERTAKER
SOLO I BIT OVER
|-------------------|
|-------------------|
|----5-------7------|
|----5-------7------|
|----3-------5------|
|-0--0---0---0------|


Ваше мнение



Капча