RVD Entrance Theme

Intro
E5
4 |--2--|
5 |--2--|
6 |--0--|

Riff 1
E5 G5 E5 G5 E5 G5 F#5
4 |--2----5---2---5----2---5----4----
5 |--2----5---2---5----2---5----4----
6 |--0----3---0---3----0---3----2----
pm… ... ... ...

Riff 1 (Variation - Play every 4th time or so)
E5 G5 E5 G5 F#5
4 |--2----5---2---5----4----
5 |--2----5---2---5----4----
6 |--0----3---0---3----2----
pm… ... ...

Riff 2
E5 G5 A#5 G5 D5 G5 G#5 G5 F#5
4 |--2----5----8----5----7----5----6----5----4----
5 |--2----5----8----5----7----5----6----5----4----
6 |--0----3----6----3----5----3----4----3----2----


Ваше мнение



Капча

Рекомендуем