*HEY ITS me slashgenerationx from delhi again>this time with some kickass dx tabs.

e------------------------------------------------------------
b------------------------------------------------------------
g------------------------------------------------------------
d----2-0-2---------------------------------------------------
a--0--------2--3---------------------------------------------
e-----------------2---3--------------------------------------

e------------------------------------------------------------
b------------------------------------------------------------
g------------------------------------------------------------
d----2-0-2---------------------------------------------------
a--0--------2--3---------------------------------------------
e-----------------2---3--------------------------------------


Ваше мнение



Капча

Рекомендуем