Artist: Steve Miller Band
Song: Rock N'Me
Tabbed by: John Leadman
Intro: x3
|------------------------------------------------------|-------------------------|
|------------------------------------------------------|-------------------------|
|---------------------------------------9-------9-----'|-------------------------|
|------------9-9----------9------9-------------9------'|-------------------------|
|--7-7-9--9-7-7-9--9h11---9h11---9h11---9h11----9---|-----2-5---2-----2-5---2-|
|--5-5-7--7-----7-------------------------------7---|-2-5-----5---2-5-----5---|
Verse:
|-----------------------------------------------------------------------------------------|
|-----------------------------------------------------------------------------------------|
|-----------------------------------------------------------------------------------------|
|-----------------------------------------------------------9-9-9-9-9-9-9-9-9-9-9-9-9-9-9-|
|-9-9-9-9-9-9-9-9-9-9-9-9-9-9-7-7-7-7-7-7-7-7-7-7-7-7-7-7-7-7-7-7-7-7-7-7-7-7-7-7-7-7-7-7-|
|-7-7-7-7-7-7-7-7-7-7-7-7-7-7-5-5-5-5-5-5-5-5-5-5-5-5-5-5-5-------------------------------|
Guitar 1 plays this fill
|-------------------|
|-------------------|
|-------------------|
|-4-4-6-7-7---------|
|-------------------|
|-------------------|
While guitar 2 plays the verse chords


Ваше мнение



Капча

Рекомендуем