Mick Jagger
God Gave Me Everything
Tabbed by Andres ([email protected])
***********************************************
Visit www.geocities.com/clubtabz for more tabs!
***********************************************
Pretty easy and really cool song. Plus Lenny's playing :)
Chords for INTRO and CHORUS
C#5 E5 A5 F#5
E--------------------
B--------------------
G---6---9------------
D---6---9---7---4----
A---4---7---7---4----
E-----------5---2----
God gave me everything I want...
Behind INTRO there's something like this
E------------------
B------------------
G---6---6---6------
D-----6---6---6----
A------------------
E------------------
Chords for VERSE:
C#5 E5 B5 A5
(Guitar doesn't play this chords)
First VERSE
E----------------------------
B----------------------------
G-----6-------6-------6------
D---6---6---6---6---6---6----
A----------------------------
E----------------------------
You can see it in a clear blue sky...
Second VERSE
E---------------------------
B---------------------------
G-----6-----------4-6-------
D---6---6--6----6------6----
A---------------------------
E---------------------------
This goes after chorus
B5 A5 B5 A5
E--------------------------
B--------------------------
G--------------------------
D--9---7---9---7----9-9----
A--9---7---9---7----9-9----
E--7---5---7---5----7-7----
Lenny's Solo (C#5 E5 B5 A5)
E-12--------------------------------------------------------------
B----14--12---14-14p12------12--12/14----16--17---17b19r17--------
G-----------------------13----------------------------------13----
D-----------------------------------------------------------------
A-----------------------------------------------------------------
E-----------------------------------------------------------------
E-----------------------------------------------------------------
B-----------------------------------------------------------------
G--11--9--9/11----9--11------11/13--13-13-13-13-13---13-13/16-----
D------------------------9----------------------------------------
A-----------------------------------------------------------------
E-----------------------------------------------------------------
E---------------------------------------------------------------------
B------------------------------16--17---17-17--17/19--17-19--19b21----
G--13--13/16---18-18-18-18-18-----------------------------------------
D---------------------------------------------------------------------
A---------------------------------------------------------------------
E---------------------------------------------------------------------
Play and enjoy!
-----------------------------------------------
Visit www.geocities.com/clubtabz for more tabs!
-----------------------------------------------


Ваше мнение



Капча

Рекомендуем