Received: from LUGA.latrobe.edu.au (luga.latrobe.edu.au [131.172.2.2]) by post-office.nevada.edu (8.6.4/8.6.4) with SMTP id IAA00351 for ; Thu, 10 Mar 1994 08:55:35 -0800
Received: from lux.latrobe.edu.au by LUGA.latrobe.edu.au with SMTP id AA13696
(5.67a/IDA-1.5/LTU-1.0 for ); Fri, 11 Mar 1994 01:37:56 +1000
Received: by lux.latrobe.edu.au (5.67a/Ultrix3.0-C)
id AA29275; Fri, 11 Mar 1994 01:37:52 +1000
Date: Fri, 11 Mar 1994 01:37:52 +1000
From: [email protected] ( Junacko)
Message-Id:
To: [email protected]
Subject: Mick Jagger - Don't Tear Me Up
From: [email protected] (Dieter Stoll)
Subject: TAB: Solo "Don't tear me up"

Hey, I did it! Here's my first TAB (certainly it could use some
improvement..)

Solo "Don't tear me up"

A D A
e--------------10b(12)----b(12)10-----------------------------------
B-----10-10-----------------------10~-------------------------------
G--11-------11--------------------------12-11-10-9--------------14--
D---------------------------------------------------13-12-11--------
A------------------------------------------------------------12-----
E-------------------------------------------------------------------

D A D
e-----------------------------------14b(15)--b(15)14----------------
B----------------------13-----13----------------------10-13-12-10---
G-------------14-12-14----14-----14---------------------------------
D----10-11-14-------------------------------------------------------
A-12----------------------------------------------------------------
E-------------------------------------------------------------------

A D Life is..
e-----------/17-----------------------------------------------------
B--10~--10-------10--------------------8------8------8--------------
G-------------------12-9--9------------8b(9)--8b(9)--8b(9)----------
D---------------------------12-10-----------------------------------
A-------------------------------------------------------------------
E-------------------------------------------------------------------

5b(7) play fret 5, bend up to 7
b(7)5 start with fret 5 bent to pitch of 7, then release bend
10~ fret 10 w/ vibrato
/7 slide up from nowhere to 7

--
Dieter Stoll work: Lennartz electronic GmbH
D-72127 Kusterdingen Bismarckstrasse 136
Germany D-72072 Tuebingen
home phone: +49-7071-38321

From: [email protected] (Bery Rinaldo)
Subject: CRD: Don't Tear Me Up - Mick Jagger

I just figured this one out last night and thought others might
be interested...corrections welcome.

-Bery
------------------------------------------------------------------
Don't Tear Me Up by Mick Jagger

(intro -- organ/hi-hat A-D-A-D)

(verse)
A D
Life is rich, but it's way too short

Bm D
You make a lot of money, but you just want more

A D
I don't need the pain, right here in my heart

Bm D
But I hate every minute when we're so far apart

A-D-A-D

(verse)
It was love in a minute, it was love in a flash
It brings me no pleasure, just a stab in the back
It brings me no comfort, it brings me no peace
A weight on my shoulder, it's a fatal disease

(chorus 1)
F#m A D (power chords, then down)
So don't tear me up

Bm D
I don't ever want to see your picture again

F#m A D (power chords, then down)
And don't poison my blood

Bm D
I don't ever want to see your face anymore

A-D-A-D (piano aaaa)

(verse)
Gonna finish it quick, gonna finish it clean
Don't wanna be bitter, I don't wanna be mean
I feel like we're driving down a dead end street
I've come so far I wanna crash the car, I wanna land right on my feet

(chorus 2)
I said don't tear me up
I don't ever want to see your picture again
I said don't tear me up
I don't ever want to see your face anymore

(bridge)
E D A Bm D
But I dream of you constantly, you'll be my angel of light

E D A Bm D
And in the dark rooms of sleeplessness, you'll be my lover each night...

[solo - A-D-A-D-A-D-A-D]

Life is a bitch, it's way too short
Unlike a politician it just can't be bought
Think about the tenderness, and think about the craziness
And if you ever wanna hate me come and stick a knife right in my chest

(repeat chorus 2)

(verse)
I said don't tear me up
I said don't tear me up
So don't poison my blood
I don't ever want to see your picture again

-----------------------------------------------------------------------------
Bery Rinaldo ([email protected]) Any opinions here are my own.
Schlumberger Technologies - ATE Division
1601 Technology Drive "All I want is to have my peace of mind."
San Jose, CA 95110 -- Tom Scholz (Boston)
-----------------------------------------------------------------------------


Ваше мнение



Капча

Рекомендуем