From: [email protected] (Burning Inside)
Date: 06 Dec 95 17:22:43 -0500
Subject: TAB: "June Bug" by the Melvins
From: [email protected]
June Bug by the Melvins
from the album "Stoner Witch"
music by Buzz Osbourne and Mark Deutrom
tabbed by Tom Mallon
Dropped-D Tuning
Intro (Bass arranged for guitar)
E |----------------------------------|
B |----------------------------------|
G |.--------------------------------.|
D |.--------------------------------.|
A |--5---5-5-5-5-5-5-5-5-5-5---------|
D |---------------------------0-0-0--|
E |------------------------------|
B |------------------------------|
G |.----------------------------.| note: this part of the intro is played
D |.----------------------------.| by bass during the main guitar riff.
A |----------------------1----2--|
D |--0-0-3--0-0-3--0-0-0----0----|
E |-------------------------------------------------|
B |-------------------------------------------------|
G |.-----------------------------------------------.|
D |.-----------------------------------------------.|
A |--5---5-5-5-5-5-5-5-5-5-5-5----------------------|
D |-----------------------------3---3-3-3-3-3-3-3-3-|
Guitar Riff One
E |--2-------2h3p2---------2-3-5-3----2h3p3--------|
B |--3----3------------3----------------------3----|
G |.----------------------------------------------.|
D |.----------------------------------------------.|
A |------------------------------------------------|
D |------------------------------------------------|
Guitar Riff 2
E ----------------------------------------------------------
B ----------------------------------------------------------
G -7--7-7-7-7-7--5--5-5-5-5-5--4--4-4-4-4-4--3--3-3-3-3-3---
D -7--7-7-7-7-7--5--5-5-5-5-5--4--4-4-4-4-4--3--3-3-3-3-3---
A -5--5-5-5-5-5--3--3-3-3-3-3--2--2-2-2-2-2--1--1-1-1-1-1---
D ----------------------------------------------------------
E ----------------------------------------------------------
B ----------------------------------------------------------
G -7--7-7-7-7-7--5--5-5-5-5-5--4--4-4-4-4-4--5--5-5-5-5-5---
D -7--7-7-7-7-7--5--5-5-5-5-5--4--4-4-4-4-4--5--5-5-5-5-5---
A -5--5-5-5-5-5--3--3-3-3-3-3--2--2-2-2-2-2--3--3-3-3-3-3---
D ----------------------------------------------------------
Guitar Riff 3 (I'm shaky on this oneand this is by no means correct.
This is what I play, it's most likely not what Buzz plays.
Either way, do lots of hammer-ons and it'll probably come
out sounding fine.)
E ----------------------------------------------------------
B ----------------------------------------------------------
G ----------------------------------------------------------
D ----------------------------------------------------------
A -0-------------------------10-----------------------------
D -0-5-4-0-6-5-0-7-6-0-8-7-0-10-----------------------------
Near the end, Buzz does a little improv on whatever scale he is using
in Guitar Riff One. I'm not exactly ure of it because it's a little hard
to hear. Just mess around.
Outro
E |--------------------------------------------------|----------
B |--------------------------------------------------|----------
G |.-------------------------------------------------|----------
D |.-------------------------------------------------|--0-------
A |--0--0-0-0-0-0--2-2-2-2---0--0-0-0-0-0--3-3-3-3---|--0-------
D |--0--0-0-0-0-0--2-2-2-2---0--0-0-0-0-0--3-3-3-3---|--0-------



Ваше мнение



Капча

Рекомендуем