From: [email protected] (L Metcalfe)
____ ____ ___ ____
|Y\ /Y| ________ ________ ______ ________ _________ |YI |Y|
||\\ //|| |>---------------w/Rhy.Fig.2
thinking is derailed, I'm tied up to the tracks. The
train of consequences, there ain't no turning back, oh!
=>Rhy.Fig.1
=>2.verse w/Rhy.Fig.1 (2 times)
No horse ever ran fast as the money that you bet.
I'm blowing on my cards and I play them to my chest.
Life's fabric is corrupt, shot through with corroded thread.
As for me, I hocked my brains, packed my bags and headed west, ow!
=>2nd Pre-chorus
I hocked my brains,
headed west, oh!
=> To chorus
Rhy.Fig.3
|--------------------------------|--------------------------------|
|--------------------------------|--------------------------------|
|--------------------------------|--------------------------------|
|---0^2-x-x-3^2^0-2--------0--2--|--------------7---7-7-7-7-6-5---|
|---------------------2~~~~------|3^5-------3/7-----------------7-|
|--------------------------------|----0^3^5-----------------------|
|--------------------------------|-----------------------------12-------|
|--------------------------------|12~~~~~~~~~~~15b17--(15)~~~~~---15-12-|
|--------------------------------|--------------------------------------|
|--------------------------------|--------------------------------------|
|--------------------------------|--------------------------------------|
|--------------------------------|--------------------------------------|
|
| (end Rhy.Fig.3)
|--------------------------------|--------------------------------------|
|--------------------------------|--------------------------------------|
|--------------------------------|--------------------------------------|
|------------------2-------------|5-------5--------------------2--------|
|----3---x-x-3^0---0---2----5-7--|3---x-x-3^0---0---------3-------------|
|----------------3-----0----3-5--|------------3-----3b5-----------------|
Guitar solo
w/Rhy.Fig.3 (3 times)
|----------------------12-------|------------------------------------------|
|----15b17~~~~~~~~~~~~~---14^12-|------------------------------14-12-------|
|-------------------------------|14b16--(16)r(14)^12-14~~~~~~~~------14-12-|
|-------------------------------|------------------------------------------|
|-------------------------------|------------------------------------------|
|-------------------------------|------------------------------------------|
|--------------------------|------------------------------------0-0-|
|--------------------------|------------------------------------0-0-|
|--------------------------|----------------------------------------|
|---12^14~~~~~~~~~12\10----|----------------------------------------|
|--------------------------|12^10^12^10-12^13^12^10-----------------|
|--------------------------|------------------------12~~~(12)\------|
|---0---0-0-0---0-0-0---0-0-0---0-0-|0---10-----10-----10-10/12-10----------|
|---5---5-5-3---3-3-5---5-5/8---8-8/|10----10-----10---------------12-11-10-|
|-----------------------------------|---------------------------------------|
|-----------------------------------|---------------------------------------|
|-----------------------------------|---------------------------------------|
|-----------------------------------|---------------------------------------|
|----------------------------------------|
|----------------------------------------|
|---12/\/\/\/\/\(12)\x/12-14-15-16-15-14-|
|----------------------------------------|
|----------------------------------------|
|----------------------------------------|
|-------------------------------------------------------------------|
|-------------------------------------------------------------------|
|-12-14-15-16-15-14-12-----14b16r14^12----14-12~~~~~~~~~~~~12-14b16-|
|-----------------------14-------------14---------------------------|
|-------------------------------------------------------------------|
|-------------------------------------------------------------------|
|---------------------12----------------------12-------------------|
|------12-15-------12----------12-15-------12----------12-15-------|
|--(16)------14b16-------14b16-------14b16-------14b16-------14b16-|
|------------------------------------------------------------------|
|------------------------------------------------------------------|
|------------------------------------------------------------------|
|-------12----------------12-------------15b17~~~~~~~~~~15-14--|
|-12^15----15-12----12^15----15-12----12-----------------------|
|----------------14----------------14--------------------------|
|--------------------------------------------------------------|
|--------------------------------------------------------------|
|--------------------------------------------------------------|
|---15~~~~15~~~~~~(15)\---------|---------14-15--17^15-14--15--17--19^17-15-
|-------------------------------|------17-----------------------------------
|-------------------------------|---16--------------------------------------
|-------------------------14-16-|17-----------------------------------------
|-------------------------------|-------------------------------------------
|-------------------------------|-------------------------------------------
-17--19-20--22-|
---------------|
---------------|
---------------|
---------------|
---------------|
=>chorus
w/Rhy.Fig.2 (4 times)
=>Outro
w/Rhy.Fig.1

--
?
? ,,, ?
(@ @)
-------------------------oOO--(_)--OOo-------------------------
Toni Myrberg, Annalankatu 11d46, 33710 Tampere, 931-3160268
"Aarrgh! Astuin miinaan. Parasta p|tki{ pakoon."-Korkeaj{nnitys
---------------------------------------------------------------


Ваше мнение



Капча

Рекомендуем