Author/Artist: Megadeth
Title: Mechanix
Album: Killing Is My Business...And Business Is Good
Transcribed by: John Flaherty
Email: [email protected]

Intro

------------------------------------------------------------------------------
------------------------------------------------------------------------------
------------------------------------------------------------------------------
--4---5-------------------4---5----------------4---5------------------4---5---
--2---3------4/5-----5----2---3------4--5------2---3------4/5-----5---2---3---
----------0--2/3--3--3------------0--2--3--0-----------0--2/3--3--3-----------


------------------------------------------------------------------------------
------------------------------------------------------------------------------
------------------------------------------------------------------------------
---------------4---5------------------------------4---5-----------------------
-----4--5------2---3------4/5-----5---------------2---3------4--5-------------
--0--2--3--0-----------0--2/3--3--3---12-----------0--2--3--0---//x--
2nd Intro

------------------------------------------------------------------------------
------------------------------------------------------------------------------
------------------------------------------------------------------------------
----------------------------------------------------5h7-----------------------
---7p5--7p5--7p5--7p5-----5--7p5--7p5--7p5-----5h7-------7p5--7p5--7p5--7p5---
-----------------------7--------------------7---------------------------------


------------------------------------------------------------------------------
------------------------------------------------------------------------------
------------------------------------------------------------------------------
--5-----7--5----------------------------------------------------5h7-----------
--3--5--5--3---7p5--7p5--7p5--7p5-----5--7p5--7p5--7p5-----5h7-------7p5------
-----3-----------------------------7--------------------7---------------------
Verse

-----------------------------|------------------------------------------------
-----------------------------|------------------------------------------------
-----------------------------|------------------------------------------------
-----------------5-----7--5--|--------9--------9--------9---7--7---------9----
-7p5--7p5--7p5---3--5--5--3--|--------7--------7--------7---5--5---------7----
--------------------3--------|--0--0-----0--0-----0--0-------------0--0-------


------------------------------------------------------------------------------
------------------------------------------------------------------------------
------------------------------------------------------------------------------
-------9--------9---5--7---------9--------9--------9---12--9---5-----7--5-----
-------7--------7---3--5---------7--------7--------7---10--7---3--5--5--3-----
-0--0-----0--0-------------0--0-----0--0-----0--0-----------------3-----------


------------------------------------------------------------------------------
------------------------------------------------------------------------------
------------------------------------------------------------------------------
-------9--------9--------9---7--7---------9--------9--------9---5--7----------
-------7--------7--------7---5--5---------7--------7--------7---3--5----------
-0--0-----0--0-----0--0-------------0--0-----0--0-----0--0-------------0--0---
0:54

------------------------------------------------------------------------------
------------------------------------------------------------------------------
------------------------------------------------------------------------------
-9--------9--------9---12--9---5-----7--5---------9--------9--------9---7--7--
-7--------7--------7---10--7---3--5--5--3---------7--------7--------7---5--5--
----0--0-----0--0-----------------3---------0--0-----0--0-----0--0------------


------------------------------------------------------------------------------
------------------------------------------------------------------------------
------------------------------------------------------------------------------
-------9--------9--------9---5--7---------9--------9--------9---12--9---5-----
-------7--------7--------7---3--5---------7--------7--------7---10--7---3--5--
-0--0-----0--0-----0--0-------------0--0-----0--0-----0--0-----------------3--
Chorus

--------|---------------------------------------------------------------------
--------|---------------------------------------------------------------------
--------|---------------------------------------------------------------------
--7--5--|---9---97---75---54-------------9---97---75---54---4--5--4-----
--5--3--|---7---75---53---32-------------7---75---53---32---2--3--2--5--
--------|-------------------------///x----------------------------------3--


-|----------------------------------------------------------------------------
-|----------------------------------------------------------------------------
-|----------------------------------------------------------------------------
-|---------------------------------------------------5h7----------------------
-|--7p5--7p5--7p5--7p5-----5--7p5--7p5--7p5-----5h7-------7p5--7p5--7p5--7p5--
-|----------------------7--------------------7--------------------------------


------------------------------------------------------------------------------
------------------------------------------------------------------------------
------------------------------------------------------------------------------
--5------7--5----------------------------------------------------5h7----------
--3--5---5--3---7p5--7p5--7p5--7p5-----5--7p5--7p5--7p5-----5h7-------7p5-----
-----3------------------------------7--------------------7--------------------
Verse 2

-----------------------------|------------------------------------------------
-----------------------------|------------------------------------------------
-----------------------------|------------------------------------------------
-----------------5-----7--5--|--------9--------9--------9---7--7---------9----
-7p5--7p5--7p5---3--5--5--3--|--------7--------7--------7---5--5---------7----
--------------------3--------|--0--0-----0--0-----0--0-------------0--0-------


------------------------------------------------------------------------------
------------------------------------------------------------------------------
------------------------------------------------------------------------------
-------9--------9---5--7---------9--------9--------9---12--9---5-----7--5-----
-------7--------7---3--5---------7--------7--------7---10--7---3--5--5--3-----
-0--0-----0--0-------------0--0-----0--0-----0--0-----------------3-----------


------------------------------------------------------------------------------
------------------------------------------------------------------------------
------------------------------------------------------------------------------
-------9--------9--------9---7--7---------9--------9--------9---5--7----------
-------7--------7--------7---5--5---------7--------7--------7---3--5----------
-0--0-----0--0-----0--0-------------0--0-----0--0-----0--0-------------0--0---
Chorus 2

----------------------------------------------------|-------------------------
----------------------------------------------------|-------------------------
----------------------------------------------------|-------------------------
-9--------9--------9--------9---12--9---5-----7--5--|---9---97---75---54---
-7--------7--------7--------7---10--7---3--5--5--3--|---7---75---53---32---
----0--0-----0--0-----0--0-----------------3--------|-------------------------


----------------------------------------------|-------------------------------
----------------------------------------------|-------------------------------
----------------------------------------------|-------------------------------
------------9---97---75---54---4--5--4-----|-------------------------------
------------7---75---53---32---2--3--2--5--|--7p5--7p5--7p5--7p5-----5-----
--///x----------------------------------3--|----------------------7--------


------------------------------------------------------------------------------
------------------------------------------------------------------------------
------------------------------------------------------------------------------
------------------------5h7-----------------------5-----7--5------------------
-7p5--7p5--7p5-----5h7-------7p5--7p5--7p5--7p5---3--5--5--3---7p5--7p5--7p5--
----------------7------------------------------------3------------------------
2:06

--------------------------------------------------------------------------|---
--------------------------------------------------------------------------|---
--------------------------------------------------------------------------|---
------------------------------------5h7-----------------------5-----7--5--|---
--7p5-----5--7p5--7p5--7p5-----5h7-------7p5--7p5--7p5--7p5---3--5--5--3--|---
-------7--------------------7------------------------------------3--------|---
Interlude

-----------------------------------------------------------------|------------
-----------------------------------------------------------------|------------
-----------------------------------------------------------------|------------
-----------------------------------------------------------------|------------
-----------------------------------------------------------------|------------
--0-0-0--0-0-0--0-0-0--0-0-0--0-0-0--0-0-0--0-0-0--0-0-0--0-0-0--|--0-0-0--0--
Fill 1

-------------------------------------------------------|----------------------
-------------------------------------------------------|----------------------
-------------------------------------------------------|----------------------
-------------------------------------------------------|----------------------
-------------------------------------------------------|----------------------
-0-0--0-0-0--0-0-0--0-0-0--0-0-0--0-0-0--0-0-0--0-0-0--|--0-0-0--0-0-0--0-0---
X2

----------------------------------------------|-------------------------------
----------------------------------------------|-------------------------------
----------------------------------------------|-------------------------------
---109--9------------------------------10-10-|-----------------------109--9-
----87--7------------------------------8--8--|------------------------87--7-
-0---------0-0-0--0-0-0--0-0-0--0-0-0---------|--0-0-0--0-0-0--0-0-0----------
x2

------------------------------------|-----------------------------------------
------------------------------------|-----------------------------------------
------------------------------------|-----------------------------------------
------------------------------10-10-|-----------------------------------------
------------------------------8--8--|--7--5-----5--------------------------7--
-0-0-0--0-0-0--0-0-0--0-0-0---------|--------7-----7--5--7--5--3--5--3--0-----


---------------------|--------------------------------------------------------
---------------------|--------------------------------------------------------
---------------------|--------------------------------------------------------
---------------------|---------------------------------------------------5h7--
--5-----5------------|--7p5--7p5--7p5--7p5-----5--7p5--7p5--7p5-----5h7-------
-----7-----7--5--7---|----------------------7--------------------7------------


------------------------------------------------------------------------------
------------------------------------------------------------------------------
------------------------------------------------------------------------------
-----------------------5-----7--5---------------------------------------------
--7p5--7p5--7p5--7p5---3--5--5--3---7p5-7p5--7p5--7p5-----5--7p5--7p5--7p5----
--------------------------3----------------------------7----------------------
Verse 3

-----------------------------------------------|------------------------------
-----------------------------------------------|------------------------------
-----------------------------------------------|------------------------------
---------5h7-----------------------5-----7--5--|--------9--------9--------9---
----5h7-------7p5--7p5--7p5--7p5---3--5--5--3--|--------7--------7--------7---
-7------------------------------------3--------|--0--0-----0--0-----0--0------


------------------------------------------------------------------------------
------------------------------------------------------------------------------
------------------------------------------------------------------------------
--7--7---------9--------9--------9---5--7---------9--------9--------9---12----
--5--5---------7--------7--------7---3--5---------7--------7--------7---10----
---------0--0-----0--0-----0--0-------------0--0-----0--0-----0--0------------


------------------------------------------------------------------------------
------------------------------------------------------------------------------
------------------------------------------------------------------------------
-9---5-----7--5---------9--------9--------9---7--7---------9--------9---------
-7---3--5--5--3---------7--------7--------7---5--5---------7--------7---------
--------3---------0--0-----0--0-----0--0-------------0--0-----0--0-----0--0---
Chorus 3

-----------------------------------------------------------|------------------
-----------------------------------------------------------|------------------
-----------------------------------------------------------|------------------
-9---5--7---------9-------9--------9---12--9---5-----7--5--|--9---97---75---
-7---3--5---------7-------7--------7---10--7---3--5--5--3--|--7---75---53---
------------0--0-----0--0----0--0-----------------3--------|------------------


----------------------------------------------------|-------------------------
----------------------------------------------------|-------------------------
----------------------------------------------------|-------------------------
--54-------------9---97---75---54---4--5--4-----|-------------------------
--32-------------7---75---53---32---2--3--2--5--|--7p5--7p5--7p5--7p5-----
--------///x----------------------------------3--|----------------------7--


------------------------------------------------------------------------------
------------------------------------------------------------------------------
------------------------------------------------------------------------------
----------------------------5h7-----------------------5-----7--5--------------
--5--7p5--7p5--7p5-----5h7-------7p5--7p5--7p5--7p5---3--5--5--3---7p5--7p5---
--------------------7------------------------------------3--------------------


------------------------------------------------------------------------------
------------------------------------------------------------------------------
------------------------------------------------------------------------------
----------------------------------------5h7-----------------------5-----7--5--
-7p5--7p5-----5--7p5--7p5--7p5-----5h7-------7p5--7p5--7p5--7p5---3--5--5--3--
-----------7--------------------7------------------------------------3--------
Repeat Fill 1 x 4, then Repeat 2nd Intro (Rhythm under solo) Guitar


Ваше мнение



Капча

Рекомендуем