#----------------------------------PLEASE NOTE---------------------------------#
#This file is the author's own work and represents their interpretation of the #
#song. You may only use this file for private study, scholarship, or research. #
#------------------------------------------------------------------------------##
From [email protected]
Megadeth
New World Order
Here is the riff at the beginning of the song and the chorus
|-------------------------------------------------------------------------------
|-------------------------------------------------------------------------------
|------------------------------------------------------7------------------------
|--2----------2----------------------------------------7------------------------
|--2-----0h2-----0h2--5-----5--------------------------5--------5--4------------
|--0------------------------3--------0--2--3-----2--0-----------3--2------------

Chorus
No confession, All is known
New world order shall be shown

================================================================================
== TABLATURE EXPLANATION ==
================================================================================
---------- ----------
----5h8--- Hammeron ----(8)--- Ghost Note
---------- ----------
----5p8--- Pulloff ----------
---------- ----------
----5/8--- Slide Up -----x---- Dead Note
---------- ----------
----58--- Slide Down ----------
---------- ||------|| Repeat Start & End
----5~~~-- Vibrato ||*----*||
---------- ||*----*||
---------- ||------||
Rhythm:
w = whole note W = dotted whole
h = half note H = dotted half
q = quarter note Q = dotted quarter
e = eighth note E = dotted eighth
s = sixteenth note S = dotted sixteenth
^ = triplet
================================================================================
== Created with a shareware version of the BUCKET 'O TAB ==
== tablature creation software for Windows ==
== For more information: ==
== email: [email protected] ==
== US Mail: The Bucket, 3176-B5 Summit Square Dr., Oakton, VA 22124 ==
================================================================================


Ваше мнение



Капча

Рекомендуем