Megadeth Moto Psycho.
Tabbed by Nik Hinton [email protected]

Here we go.. the Rhythm guitar parts for the song. theres only 3 main riffs and here they are

Riff A)
e---------------------------------------------------
B---------------------------------------------------
G---------------------------------------------------
D---------------------------------------------------
A------------------------------------------------3-1
E--3-3-3-3-3--3-3-3-3-3--3-3-3-3-3--3-3-3-3-3-1-3---
***Pm** ***Pm** ****Pm* ****Pm*

Riff B)
e----------------------------------
B--------------------------------------------------
G-9------------------------7-----------------------
D-x Tremlo picking (2bars)-x-tremlo picking (2 Bars)
A-7------------------------5-----------------------
E--------------------------------------------------

Riff C)
e------------------------------------------
B------------------------------------------
G------------------------------------------
D------------------------------------------
A------------------------------------5-3---
E--3--333--333--33-3-1--3-333-333-33-3-1---
Pm * *** *** ** * *** *** **

And the order

a x8
b x1
a x2 (w/solo)
b x1
c x4
Pause (this is a simple fill. u can do this urselves)
a x4
b x1
a x2(w/solo)
b x1
c x4
a x2
b x1
c x8 (i think i cant remember)

ill b back soon with the solos until then keep rockin


Ваше мнение



Капча

Рекомендуем