Megadeth - Looking Down The Cross
Tabbed By: Drew Porter
EMail: [email protected]
Tuning: Standard (E A D G)
Intro 2x 2x
G||----------------------||-----------------------||---------------------------||
D||o--------------------o||o---------------------o||---------------------------||
A||o-2---------1--------o||o-5---------4---------o||-------------------10-9-8-7||
E||----3-3-3-3---3-3-3-3-||----3-3-3-3---3-3-3-3--||---7~--7-3-5~--5~----------||
1st Verse
G||----------------------------------------||
D||o--------------------------------------o||
A||o-12---12---12---12-8---8---8---11-9-8-o||
E||-----0----0----0------0---0---0---------||
bridge/2nd verse
G||---------------------------------------------||
D||o-------------------------------------------o||
A||o-0-0-0-2-3-0--0-0-0-4-5-0--0-0-0-7-8-10-12-o||
E||---------------------------------------------||
solo
G||---------------||
D||o-------------o||
A||o-0-0-0-0-0-0-o||
E||---------------||
3rd verse
G||-------------------||
D||o-----------------o||
A||o-----------------o||
E||--0-0-0-0-0-0-0-0--||
bridge
G||----------------||--------------------------||
D||o--------------o||o------------------------o||
A||o-0--0-0-0-0-0-o||o-0----0----0--0-0-0-0-0-o||
E||----------------||--------------------------||
4th verse
G||----||-------------------------------||
D||----||o-----------------------------o||
A||-0~-||o--2-3~----4-5~---7-8-10-12~--o||
E||----||-------------------------------||
brige before chorus
G||-------------------------------||
D||-------------------------------||
A||-------------------------------||
E||--0--0--0--0--0--0-0--0--0--0--||
Chorus
G||--------------------------------------||
D||o------------------------------------o||
A||o-12---12-11---11-10---10------------o||
E||-----0-------0-------0----10-0-11-12--||
outro
G||----------------------------------------------||-------||
D||o--------------------------------------------o||-------||
A||o-0--0-0-0-2-3-0--0-0-0-4-0--0-0-0-7-8-10-12-o||-2-2---||
E||----------------------------------------------||-----1-||


Ваше мнение



Капча

Рекомендуем