I'll Get Even
Transcribed by Mark Mindrup
Standard Tuning
Pre-Chorus
------------------------------------------------
------------------------------------------------
-------------------------12-12-12-12-14-14-14-14
-14-14-14-14-12-12-12-12------------------------
------------------------------------------------
------------------------------------------------ 2X
Chorus
--------------------------------
--------------------------------
--------------------------------
-----2-------2-------2-------2--
---2---2---2---2---2---2---2---2
-0-------2-------3-------2------ 4X


Ваше мнение



Капча

Рекомендуем